Don't Stop Believing - Journey
======================================

// =slide
^=bend half

  intro *palm muted clean


 1----------------------------------------------------------------
 2----------------------------------------------------------------
 3 ----------------4-4-4-4-4-4--6-6-6-6-6-6-----------------------
 4-2-2-2-2-2-2-----4-4-4-4-4-4--6-6-6-6-6-6--2-2-2-2-2-2----------
 5-2-2-2-2-2-2-----2-2-2-2-2-2--4-4-4-4-4-4--0-0-0-0-0-0----------
 6-0-0-0-0-0-0----------------------------------------------------

  
 chorus
 
1----------------------------------------------------------------------
2----------------------------------------------------------------------
3----------------------------------------------------------------------
4-------------------------------------2--------------------------------
5---0---1--2-----1--2----4-------4---------0------------0----4-----2---
6----------------------------------------------------------------------

solo

1 --17--16----14---17--16----17---16-14--12--14---12--11--9-----17--16--14--17--16----19///21^


song order
 intro
 chorus
 solo
 chorus with the intro in the background

*listen to the song to get the beat down*

Articles liés :

Pin It on Pinterest

Spelling error report

The following text will be sent to our editors: