Driving At Night
~~~~~~~~~~~~~~~~
by Joe Satriani
from "NOT OF THIS EARTH" (1986)


Drum intro....


e]---------------------------------------------------------------------
B]---------------------------------------------------------------------
G]--------------(7)/9--9-----------------------(7)/9--9----------------
D]--------------(7)/9--9----(7)/9--9-----------(7)/9--9----(7)/9--9----
A]--------------(5)/7--7----(7)/9--9-----------(5)/7--7----(7)/9--9----
E]--------------------------(5)/7--7-----------------------(5)/7--7----


e]---------------------------------------------------------------------
B]---------------------------------------------------------------------
G]-----(7)/9--9-----------------------(7)/9--9-------------------------
D]-----(7)/9--9----(7)/9--9-----------(7)/9--9----(7)/9--9-------------
A]-----(5)/7--7----(7)/9--9-----------(5)/7--7----(7)/9--9-------------
E]-----------------(5)/7--7-----------------------(5)/7--7-------------
					This is continued throughout the
song....		
   

e]---------------------------------------------------------------------
B]-----8--10--8--10^^^^^\---------8--10--11--10--8-----8--10-----------
G]--9--------------------------9--------------------9---------9^^^^^\--
D]---------------------------------------------------------------------
A]---------------------------------------------------------------------
E]---------------------------------------------------------------------

							
e]---------------------------------------------------10----------------
B]-----8--10--8--10^^^^^\---------8--10--11--10--8-------8-------------
G]--9--------------------------9-------------------9-------9--7^^^^^\--
D]---------------------------------------------------------------------
A]---------------------------------------------------------------------
E]---------------------------------------------------------------------


e]----------------------------------------14--15--14--------------14---
B]-----15--17--15--17^^^^^/-------15--17--------------17--15--17-------
G]--16-----------------------------------------------------------------
D]---------------------------------------------------------------------
A]---------------------------------------------------------------------
E]---------------------------------------------------------------------


e]---------------------------------------------------------------------
B]------------------------------------------------8--10--8-10^^^^^\----
G]--16-----16b17---12b13---8b9----------------9------------------------
D]-------------------------------8b9-----------------------------------
A]---------------------------------------------------------------------
E]--------------------------------------------------------------------- 

						
e]--------------------------0--------------------------------------12--
B]-----8--10--11--10--8-----10--8----------------------10--12--13------
G]--9--------------------9---------9----11---7-------------------------
D]---------------------------------------------------------------------
A]---------------------------------------------------------------------
E]---------------------------------------------------------------------
	

e]---------------10--------------------13--12--10--12--8---------------
B]---10--12--13------------10--12--13----------------------------------
G]---------------------------------------------------------------------
D]---------------------------------------------------------------------
A]---------------------------------------------------------------------
E]---------------------------------------------------------------------


e]-----------17---21b23^^^^--------------17---20b22^^^^-----19>^^^^^---
B]---18--20----------------------18--20--------------------------------
G]---------------------------------------------------------------------
D]---------------------------------------------------------------------
A]---------------------------------------------------------------------
E]---------------------------------------------------------------------


e]---17---15h17---13h15------------------------------------------------
B]------------------------13h15----12^^^^^^^^^-------------------------
G]---------------------------------------------------------------------
D]---------------------------------------------------------------------
A]---------------------------------------------------------------------
E]---------------------------------------------------------------------


e]---------------------------------------------------------------------
B]---------------------------------------------------------------------
G]-----(7)/9--9-----------------------(7)/9--9-------------------------
D]-----(7)/9--9----(7)/9--9-----------(7)/9--9----(7)/9--9-------------
A]-----(5)/7--7----(7)/9--9-----------(5)/7--7----(7)/9--9-------------
E]-----------------(5)/7--7-----------------------(5)/7--7-------------


e]---------------------------------------------------------------------
B]---------------------------------------------------------------------
G]-----(7)/9--9-----------------------(7)/9--9-------------------------
D]-----(7)/9--9----(7)/9--9-----------(7)/9--9----(7)/9--9-------------
A]-----(5)/7--7----(7)/9--9-----------(5)/7--7----(7)/9--9-------------
E]-----------------(5)/7--7-----------------------(5)/7--7-------------



	

 Symbols used:			This is all I have figured out so far.  
 b-bend 				When I work out the rest of the
song, I
 r-release bend			will post it, or if someone has it, send
 p-pull off				it to me and I will add it. If
you have
 h-hammer on			questions or comments, please let me
 /-slide up				know. Thanks.
 \-slide down			
 ^-vibrato
 >-hold note		
()-ghost note
 x-dead note

Articles liés :

Pin It on Pinterest

Spelling error report

The following text will be sent to our editors: