From: Luis Hernandez 
From: Leandro Gueths Dupke 
Subject: i/iron_maiden/wasting_love.tab
Date: Mon, 4 Feb 2002 13:36:17 -0300 

 Song: Wasting Love
Band: Iron Maiden
Album: Fear of the Dark

Intro

-NOTE: You play the riff 4 times, in the 1st and 3rd, play with
the hammer on and pull-off (7h8p7). The 2nd and 4th ones, replace
the 7h8p7 for a 7 only. Same for 2nd guitar.


1st guitar

    Em            C            D            G        F#          Em   
E-------------------------------------------7-------------------------
B--------------------10b12r10-----------------10-8-7-8(7h8p7)---------
G---9~--11h12-----------------11~----------------------------9-7-9~---
D----------------10~--------------------------------------------------
A---------------------------------------------------------------------
E---------------------------------------------------------------------

2ng guitar
   
    Em            C            D      G           F#                 Em
E-------------------------------------10---------------------------------
B-------10h11-------13b15r13-------------13-11-10-11(10h11h10)-----------
G--12~-----------8~-----------10~------------------------------12-10-12~-
D------------------------------------------------------------------------
A------------------------------------------------------------------------
E------------------------------------------------------------------------

-On live versions, in the 4th time only the 1st guitar is played.



Verse1:
(clean guitar)

E|-----------------------------------------------------------------------
B|-------------------------3-------------------------------3-------------
G|---------0-----------0-------0-----------0-----------0-----------------
D|-----4-------4-----4---4---4---4-----4-------4-----4---4---------------
A|---2---2---2---2-3-----------------2---2---2---2-3---------------------
E|-0-------------------------------0-------------------------------------
           Maybe one day       I'll be a honest man...
           Up till now     I'm doing the best I can...


Verse2:
(clean guitar)

E|----------------------------------------------------------------------
B|---------1---------------3--------------------------------------------
G|-----0-------0-------0-------0----------------------------------------
D|---2---2---2---2---4---4---4---4--------------------------------------
A|-0---------------0----------------------------------------------------
E|----------------------------------------------------------------------
           Long roads....
           Long days....


Chorus:
(distortion)

E|-----------------------------------------------------------------------
B|-----------------------------------------------------------------------
G|-----------------------------------------------------------------------
D|-9--------7/--5------5-----7-----7-------------------------------------
A|-7--------9/--3------3-----5-----5------5-5----4-4---------------------
E|----------------------------------------3-3----2-2---------------------
     Spend your days full of emptiness

E|-----------------------------------------------------------------------
B|-----------------------------------------------------------------------
G|-----------------------------------------------------------------------
D|------9/----------5-----5------7-----7---------------------------------
A|-2-2--7/----------3-----3------5-----5----5-5-5-5-4-4-4-4--------------
E|-0-0--------------------------------------3-3-3-3-2-2-2-2--------------
        Spend your years full of loneliness

E|-----------------------------------------------------------------------
B|-----------------------------------------------------------------------
G|-----------------------------------------------------------------------
D|------9/---5---5------7-----7-----------7-7----------------------------
A|-2-2--7/---3---3------5-----5-----5-5---5-5----------------------------
E|-0-0------------------------------3-3----------------------------------
    Wasting love, in a desperate caress

E|-----------------------------------------------------------------------
B|-----------------------------------------------------------------------
G|-----------------------------------------------------------------------
D|------9/-------5---5-----7-----7-----5---------------------------------
A|-2-2--7/-------3---3-----5-----5-----3---------------------------------
E|-0-0-------------------------------------------------------------------
       Rolling shadows of nights

Bridge1:
(clean guitar)

E|-----------------------------------------------------------------------
B|---------------3----------------------3--------------------------------
G|-----0-----0---0---------0-----0------0--------------------------------
D|---4-----4-----4-------4-----4--------4--------------------------------
A|-5-----3-------2-----5-----3----------2--------------------------------
E|-------------0-------------------0-0-----------------------------------


After this, repeat the structures in this order:

Verse, chorus, bridge1, intro, C C, D D.



Then goes:


Bridge2:
(distortion)

E|-------------------------------
B|-------------------------3-----
G|---------0-----------0---------   X4
D|-----4-----4-------4---4-------
A|---2---2-----2-3---------------
E|-0-----------------------------


Solo:

    Em                                     C                   G   F#
E|-----------------------------------------------------------------------
B|------------------------------12/--------------------------------------
G|--15--------12----12~---------12/--------7b9r7--5-4-5p4----------------
D|--14b16r14-----14---------14-----------------------------9-7-9~--------
A|-----------------------------------------------------------------------
E|-----------------------------------------------------------------------

       Em                                      C           G        F#
E|-----15--14----12----------------------------12-14-15-14-15-17-15-17b19-
B|-/12---12---12----12-15-15b17-15-13-12/--/12---12-12-12-12-12-----------
G|------------------------------------------------------------------------
D|------------------------------------------------------------------------
A|------------------------------------------------------------------------
E|------------------------------------------------------------------------

   Em                                   C                       G     F#
E|-17b19r17-15-14-15-17b19r17-15-14-----17b19b17-15-14-15-14-------------
B|----------------------------------15-----------------------15-15b17-15-
G|-----------------------------------------------------------------------
D|-----------------------------------------------------------------------
A|-----------------------------------------------------------------------
E|-----------------------------------------------------------------------

      Em                               C                     G      F#
E|----15p14------------------------------12--14--15--17--15--17b19--17/--
B|-12-------15-13-12h13-12-------------12--12--12--12--------------------
G|-------------------------14-12p11-12-----------------------------------
D|-----------------------------------------------------------------------
A|-----------------------------------------------------------------------
E|-----------------------------------------------------------------------



Then goes the chorus 2 times, on the second there's a solo:


     Spend your days.........                            
E|-------------------17b19--17b19--17b19--17b19--17b19--17--15---------
B|--------------------------------------------------------------17/----
G|---------------------------------------------------------------------
D|---------------------------------------------------------------------
A|---------------------------------------------------------------------
E|---------------------------------------------------------------------


E|------15---------------------------------------------------------------
B|-17b19--17b19r17-------------------------------------------------------
G|-----------------14b16-12----12~/--14b16-12----14~----12~--11~--9~--7~-
D|--------------------------14----------------14-----14------------------
A|-----------------------------------------------------------------------
E|-----------------------------------------------------------------------


E|---------------------
B|---------------3-----
G|-----0-----0---0-----
D|---4-----4-----4-----
A|-5-----3-------2-----
E|-------------0-------

End song.