From wigren@skelleftea.mail.telia.com Sun May  4 11:04:50 1997




TWILIGHT ZONE
Written by Steve Harris and Dave Murray.
Performed by IRON MAIDEN.
Taken from the album KILLERS.

NOTE:
This song appears only
on the US-version of KILLERS.

Transcribed by Oskar "The Seventh Son" Wigren.
E-mail me at wigren@skelleftea.mail.telia.com

Riff 1:
E-----------------------------------|---------------------------------|
B-----------------------------------|---------------------------------|
G-----------------------------------|---------------------------------|
D------7---5---4---5---4---5-4-(5)--|------7---5---4---5---4---5------|
A--0-0---0---0---0---0---0----------|--0-0---0---0---0---0---0---3----|
E-----------------------------------|---------------------------------|

Riff 2:
E-----------------------------|-----------------------------|
B-----------------------------|-----------------------------|
G------------------------5----|------------------------5----|
D------7---5---4---5---4------|------7---5---4---5---4------|
A--0-0---0---0---0---0--------|--0-0---0---0---0---0--------|
E-----------------------------|-----------------------------|

E-----------------------------|-------------------------------|
B-----------------------------|-------------------------------|
G------------------------5----|-------------------------------|
D------7---5---4---5---4------|------7---5---4---5-4-2--5--7--|
A--0-0---0---0---0---0--------|--0-0---0---0---0--------3--5--|
E-----------------------------|-------------------------------|

Verse:
E-----------------------------------|------------------------------------|
B-----------------------------------|------------------------------------|
G------7---5---4---5---4---5-4-(5)--|------7---5---4---5---4---5--4-(5)--|
D------7---7---5---5---5---5--------|------7---7---5---5---5---5---------|
A--0-0---0---0---0---0---0----------|--0-0---0---0---0---0---0-----------|
E-----------------------------------|------------------------------------|

Chorus:
Oh             Oh              Oh         I'm crying
E--------------------------------------|------------------------------------|
B--------------------------------------|------------------------------------|
G--------------------------------------|--2----------------------5-4-----5--|
D--------------------------------------|--2--------------------------7-5----|
A--------------------------------------|--0---------------------------------|
E--1-1-1-1--1-1-1-1--1-1-1-1--1-1-1-1--|------------------------------------|

Oh             Oh              Oh         I'm crying
E--------------------------------------|------------------------------------|
B--------------------------------------|------------------------------------|
G--------------------------------------|--2----------------------5-4-----5--|
D--------------------------------------|--2--------------------------7-5----|
A--------------------------------------|--0---------------------------------|
E--1-1-1-1--1-1-1-1--1-1-1-1--1-1-1-1--|------------------------------------|

Oh             Oh              Oh         can't you see me?
E--------------------------------------|-------------------------------------------|
B--------------------------------------|-------------------------------------------|
G--------------------------------------|-------------------------------------------|
D--------------------------------------|--2--------------------2-------------------|
A--------------------------------------|--0---0-0-0-0-0---0-3--0---0-0-0-0-0--0-3--|
E--1-1-1-1--1-1-1-1--1-1-1-1--1-1-1-1--|-------------------------------------------|

Ah           Ah            Ah          can't you see me?
E-----------------------------------|------------------------------|
B-----------------------------------|------------------------------|
G-----------------------------------|------------------------------|
D-----------------------------------|--5----9----5----9------------|
A-----------------------------------|--3----7----3----7------------|
E--3-3-3-3-3-3-3-3-3-3-3-3-3-3-3-3--|------------------------------|

Solo-riff:
E-----------------------|-----------------------|
B-----------------------|-----------------------|
G--2-----4-----5-----7--|--2-----4-----5-----7--|
D--2-----4-----5-----7--|--2-----4-----5-----7--|
A--0-----2-----3-----5--|--0-----2-----3-----5--|
E-----------------------|-----------------------|

E-----------------------|-----------------|
B-----------------------|-----------------|
G--2-----4-----5-----7--|--2-----4-----5--|
D--2-----4-----5-----7--|--2-----4-----5--|
A--0-----2-----3-----5--|--0-----2-----3--|
E-----------------------|-----------------|

Bridge:
E---------------------------|
B---------------------------|
G---------------------------|
D--7-5----------------------|
A------7-5-3-----2---3-2----|
E------------5-3---3-----3--|

Songstructure:
Riff 1 (2 times)
Riff 2
Verse (4 times)
Chorus
Solo-riff
Bridge
Riff 1 (2 times)
Riff 2
Verse (4 times)
Chorus
Bridge
END



OSKAR WIGREN 1997-02-18