From wigren@skelleftea.mail.telia.com Sun May  4 11:04:28 1997




TOTAL ECLIPSE
Written by Steve Harris, Dave Murray and Clive Burr.
Performed by IRON MAIDEN.
It's the b-side of the single RUN TO THE HILLS.

Transcribed by Oskar "The Seventh Son" Wigren.
E-mail me at wigren@skelleftea.mail.telia.com

Intro:
E---------------------------|-------1-----------3------|
B---------------------------|---------1-----------3----|
G---------------------------|-----------2-----------4--|
D--7-----5-5-----5-----7-7--|--------------------------|
A--7-----5-5-----3-----5-5--|----3-----------5---------|
E--5-----3-3-----3-----5-5--|--1-----------3-----------|

E-----------------------------------------|-------1-----------3------|
B-----------------------------------------|---------1-----------3----|
G-----------------------------------------|-----------2-----------4--|
D--7-----5-5-----7-----5-5-----5-----7-7--|--------------------------|
A--7-----5-5-----7-----5-5-----3-----5-5--|----3-----------5---------|
E--5-----3-3-----5-----3-3-----3-----5-5--|--1-----------3-----------|

Riff 2:
E-----------------------------|-----------------------------|
B-----------------------------|-----------------------------|
G--2---------2---2---------2--|--7---------7---9---------9--|
D--2---------2---3---------3--|--5---------5---7---------7--|
A--0---0-0-0-0---0---0-0-0-0--|--0---0-0-0-0---0---0-0-0-0--|
E-----------------------------|-----------------------------|

Chorus:
           Sunrise is gone                     ...
E-----------------------------------|-------------------------------------------|
B-----------------------------------|-------------------------------------------|
G-----------------------------------|-------------------------------------------|
D-----------------------------------|------------------------------2------------|
A--1-2-1----------------------------|--1-2-1-----------------------0---1-2-1----|
E--------3-0-0-0-0-0-0-0-0-0-0-0-0--|--------3-0-0-0-0-0-0-0-0-3-------------3--|

           Sunrise is gone                     ...
E-----------------------------------|-------------------------------------------|
B-----------------------------------|-------------------------------------------|
G-----------------------------------|-------------------------------------------|
D-----------------------------------|------------------------------2------------|
A--1-2-1----------------------------|--1-2-1-----------------------0------------|
E--------3-0-0-0-0-0-0-0-0-0-0-0-0--|--------3-0-0-0-0-0-0-0-0-3----------------|

Riff 3:
E-----------------------|--1-----------3-----------|
B-----------------------|--1-----------3-----------|
G-----------------------|--2-----------4-----------|
D--7-----5-----5-----7--|--3-----------5-----------|
A--7-----5-----3-----5--|--3-----------5-----------|
E--5-----3-----3-----5--|--1-----------3-----------|

E-----------------------------------|--1-----------3-----------|
B-----------------------------------|--1-----------3-----------|
G-----------------------------------|--2-----------4-----------|
D--7-----5-----7-----5-----5-----7--|--3-----------5-----------|
A--7-----5-----7-----5-----3-----5--|--3-----------5-----------|
E--5-----3-----5-----3-----3-----5--|--1-----------3-----------|

Solo-riff 1:
E---------------------------------------------|
B---------------------------------------------|
G---------------------------------------------|
D--------------------------------------5---7--|
A--7---7-7-7-7-7---7-7-7-7-7---7-7-7-7-3---5--|
E---------------------------------------------|

Solo-riff 2:
E-------------------------------------------|
B-------------------------------------------|
G-------------------------------------------|
D----------------------------------------5--|
A----------------------------------------5--|
E--2---2-2-2-2-2---2-2-2-2-2---2-2-2-2-2-3--|

On the fourth time of Solo-riff 2:
E-------------------------------------------------|
B-------------------------------------------------|
G-------------------------------------------------|
D-------------------------5--4--2-----------------|
A----------------------------------5--4--2--------|
E--2---2-2-2-2-2--2-2-2-2-------------------5--3--|

Riff 4:
   Gone are the days when ...
E--1------------0---------0----------3------------|
B--3------------1---------1----------3------------|
G--2------------2---------0----------0------------|
D--0------------2---------2----------0------------|
A---------------0---------3----------2------------|
E------------------------------------3------------|
   They've taken away ...
E--1------------0---------0----------3------------|
B--3------------1---------1----------3------------|
G--2------------2---------0----------0------------|
D--0------------2---------2----------0------------|
A---------------0---------3----------2------------|
E------------------------------------3------------|

   To be so free, ...
E--1------------0---------0----------3------------|
B--3------------1---------1----------3------------|
G--2------------2---------0----------0------------|
D--0------------2---------2----------0------------|
A---------------0---------3----------2------------|
E------------------------------------3------------|

   It's not the journeys ...
E--1------------0---------0----------3------------|
B--3------------1---------1----------3------------|
G--2------------2---------0----------0------------|
D--0------------2---------2----------0------------|
A---------------0---------3----------2------------|
E------------------------------------3------------|

Outro:
E---------------------------|-------1-----------3------|
B---------------------------|---------1-----------3----|
G---------------------------|-----------2-----------4--|
D--7-----5-5-----5-----7-7--|--------------------------|
A--7-----5-5-----3-----5-5--|----3-----------5---------|
E--5-----3-3-----3-----5-5--|--1-----------3-----------|

E-----------------------------------------|-------1-----------3----------------|
B-----------------------------------------|---------1-----------3--------------|
G-----------------------------------------|-----------2-----------4------------|
D--7-----5-5-----7-----5-5-----5-----7-7--|-------------------------7-----5-5--|
A--7-----5-5-----7-----5-5-----3-----5-5--|----3-----------5--------7-----5-5--|
E--5-----3-3-----5-----3-3-----3-----5-5--|--1-----------3----------5-----3-3--|

Songstructure:
Intro
Riff 2 (6 times)
Chorus
Riff 2 (6 times)
Chorus
Riff 3
Solo-riff 1 (4 times)
Solo-riff 2 (4 times)
Riff 4 (4 times)
Outro
END

OSKAR WIGREN 1997-02-19