Date: Wed, 17 Jan 2001 17:29:59 -0500
From: Julio Quinteros 
Subject: i/iron_maiden/wickerman.tab

                       The Wicker Man.

INTRO:
(Smith)
e|-------------------------------------------------------------|
B|-------------------------------------------------------------|
G|-----------------------------------------------------12-12---|
D|------9-9----------9-9----------9-9----------10-10---12-12---|
A|------7-7----------7-7----------7-7----------10-10---10-10---|
E|----0-----00-00--0-----00-00--0-----00-00--0-8--8---0--------|
    pm ^  pm....    ^  pm....    ^  pm....    ^  ^     ^  ^   

(Follows Adrian with lead)
e|-----------------------------------------------------------|
B|-----------------------------------------------------------|
G|---------------------------------------------------12-12---|
D|------9-9----------9-9----------9-9----------10----12-12---|
A|------7-7----------7-7----------7-7----------10----10-10---|
E|----0-----00-00--0-----00-00--0-----00-00--0-8----0--------|
 |   pm ^  pm....    ^  pm....    ^  pm....    ^      ^  ^   |
 |                                                           |
 |(Dave & Janick)                                            |
e|-----------------------------------------------------------|
B|-----------------------------------------------------------|
G|------9-9----------9-9----------9-9----------------12-12---|
D|------9-9----------9-9----------9-9----------10----12-12---|
A|------7-7----------7-7----------7-7----------10----10-10---|
E|---------------------------------------------8-------------|

All Guitars!!!
e|-------------------------------------------------------------|
B|-------------------------------------------------------------|
G|.----------------------------------------------------12-12--.|
D|.-----9-9----------9-9----------9-9----------10-10---12-12--.|
A|------7-7----------7-7----------7-7----------10-10---10-10---|
E|----0-----00-00--0-----00-00--0-----00-00--0-8--8---0--------|
     pm ^  pm....    ^  pm....    ^  pm....    ^  ^     ^  ^   
   
VERSE:                                                        X4
e|-------------------------------------------------------------|
B|-------------------------------------------------------------|
G|-------------------------------------------------------------|
D|------9-9----------9-9----------9-9------------------12-12---|
A|------7-7----------7-7----------7-7----------10-10---10-10---|
E|----0-----00-00--0-----00-00--0-----00-00--0-8--8---0--------|
     pm ^  pm....    ^  pm....    ^  pm....    ^  ^     ^  ^   

BASSLINE:
  Intro & Verse                              Pre-Chorus
G|------------------------------------------|-------------|----------|
D|------------------------------------------|-----55-4-2--|----------|
A|--7---------7---------7-------------10-10-|-5-3---------|-5-3---3--|
E|----00-00-0---00-00-0---00-00-0-8-0-------|-------------|-----3----|

(Bass...for the rest, only follow the guitar chords...)

PRECHORUS:
e|-----------------------------------------------|
B|-----------------------------------------------|
G|.-------------12-12--11-9----7--5-------------.|
D|.--12---10----12-12--11-9----7--5----5---10---.|
A|---12---10----10-10--9--7----5--3----5---10----|
E|---10---8----------------------------3---8-----|

CHORUS:                                                Fill               X3     
e|------------------------------------------|          |-------------------|
B|------------------------------------------|          |-12-10-12-10-12-10-|
G|.-----------------------------------------|          |.-----------------.|
D|.--9999-9---10101010-10--5555-5--7777-7---|          |.-----------------.|
A|---7777-7---10101010-10--5555-5--7777-7---|          |-------------------|
E|------------8-8-8-8--8---3333-3--5555-5---|          |-------------------|
                                                       |              (end)|
e|-------------------------------------------------|   |-------------------|
B|-------------------------------------------------|   |-12-10-12-13-12-10-|
G|----------12121212-12----------------------77---.|   |-------------------|
D|-9999-9---12121212-12---10101010-10--55-5--77---.|   |-------------------|
A|-7777-7---10101010-10---10101010-10--55-5--55----|   |-------------------|
E|------------------------8-8-8-8--8---33-3--------|   |-------------------|

RHYTHM FOR SOLO'S:
e|---------------------------------------------------|
B|---------------------------------------------------|
G|.-----------------------------------------------5--|
D|.-----9-9----------9-9----------1010---------5--5--|
A|------7-7----------7-7----------1010---------5--3--|
E|----0-----00-00--0-----00-00--0-8-8-88-88--0-3-----|
     pm ^  pm....    ^  pm....    ^  pm....    ^  ^  

e|----------------------------------------------------|
B|----------------------------------------------------|
G|-----------------------------------------------7---.|
D|-----9-9----------9-9----------1010---------5--7---.|
A|-----7-7----------7-7----------1010---------5--5----|
E|---0-----00-00--0-----00-00--0-8-8-88-88--0-3-------|
    pm ^  pm....    ^  pm....    ^  pm....    ^  ^  

BASSLINE:
G|-----------------------------------|----------------------------------|
D|.----------------------------------|---------------------------------.|
A|.--7--------7--------------------3-|--7--------7---------------------.|
E|--0--00-00-0--00-00-08-88-88-03-0--|-0--00-00-0--00-00-08-88-88-03-2--|
     ^        ^        ^        ^  ^    ^        ^        ^        ^ ^
e|--------------------------------------------------------------|
B|--------------------------------------------------------------|
G|.-----------------------------------------------------5555---.|
D|.---9999---7777---5555---7777----9999---7777---5555---5555---.|
A|----9999---7777---5555---7777----9999---7777---5555---3333----|
E|----7777---5555---3333---5555----7777---5555---3333-----------|
         ^      ^      ^      ^       ^      ^      ^      ^
OUTRO:
    Oh, Oh,...          Oh-Oh              |1.2.3.   |4.
e|-------------------------------|---------|---------|-----------|
B|-------------------------------|---------|---------|-----------|
G|.--0--------5------------7----.|.--------|--------.|----------.|
D|.--2--------5------5-----7----.|.--/5-4--|-5-5/7--.|----------.|
A|---2--------3------5-----5-----|---------|---------|--7--5-----|
E|---0---------------3-----------|---------|---------|-----------|
 |                               |         |         |           |
e|-------------------------------|---------|---------|-----------|
B|-------------------------3-----|---------|---------|-----------|
G|---9--------5------0-----2----.|.--/4-2--|-4-4^5--.|----------.|
D|---9--------5------0-----0----.|.--------|--------.|-/5-4\(2)-.|
A|---7--------3------X-----------|---------|---------|-----------|
E|---0---------------3-----------|---------|---------|-----------|

(song finish with D chord)