The Wicker Man by Iron Maiden
==========================================

Tab notation:

p   = pull-off             x   = dead note (left hand)
h   = hammer-on            *   = palm mute (right hand)
t   = tap-on               X\  = pick slide
~   = vibrato              hm  = harmonic
/   = slide up             ah  = artificial harmonic
\   = slide down           ( ) = ghost note
^   = bend                 tr  = trill
^r  = bend and release     tm  = trem picking


INTRO:
->(0:00-0:05)x8
e)|---------------------------------------------------------------|
B)|---------------------------------------------------------------|
G)|--9--9-----------9--9-----------9--9-----------5--5---12--12---| 
D)|--9--9-----------9--9-----------9--9-----------5--5---12--12---| 
A)|--7--7-----------7--7-----------7--7-----------3--3---10--10---|
E)|-------0-0-0-0-0------0-0-0-0-0------0-0-0-0-0------0--------0-|

PRE-CHORUS:
->(0:39-0:57)x2
e)|-----------------------------------------------------------------------------------------------------------|
B)|-----------------------------------------------------------------------------------------------------------|
G)|--7-------------------------5-------------12-12-12--11-9--7-----------------------------5------------------| 
D)|--7-------------------------5-------------12-12-12--11-9--7-----------------------------5-------------5--7-| 
A)|--5-------------------------3-------------10-10-10--9--7--5-----------------------------3-------------5--7-|
E)|------------------------------------------------------------------------------------------------------3--5-|

CHORUS:
->(0:58-1:18)x4
e)|-----------------------------------------------------------------------------|-Guitar 1
B)|-----------------------------------------------------------------------------|
G)|--9--9--9--9--9-----5--5--5--5--5--------------------------------------------| 
D)|--9--9--9--9--9-----5--5--5--5--5-----5--5--5--5--5-----7--7--7--7--7--------| 
A)|--7--7--7--7--7-----3--3--3--3--3-----5--5--5--5--5-----7--7--7--7--7--------|
E)|--------------------------------------3--3--3--3--3-----5--5--5--5--5--------|

e)|-----------------------------------------------------------------------------|-Guitar 2
B)|-----------------------------------------------------------------------------|
G)|--16-14-16-14-16~---16-14-16-14-16~---16-14-16-14-16~---16-14-16-17-16-14~---|
D)|-----------------------------------------------------------------------------| 
A)|-----------------------------------------------------------------------------|
E)|-----------------------------------------------------------------------------|

VERSE 2:
->(1:18-1:37)x4
e)|---------------------------------------------------------------|
B)|---------------------------------------------------------------|
G)|--9--9-----------9--9-----------9--9-----------5--5---12--12---| 
D)|--9--9-----------9--9-----------9--9-----------5--5---12--12---| 
A)|--7--7-----------7--7-----------7--7-----------3--3---10--10---|
E)|-------0-0-0-0-0------0-0-0-0-0------0-0-0-0-0------0--------0-|

PRE-CHORUS:
->(1:38-1:56)x2
e)|-----------------------------------------------------------------------------------------------------------|
B)|-----------------------------------------------------------------------------------------------------------|
G)|--7-------------------------5-------------12-12-12--11-9--7-----------------------------5------------------| 
D)|--7-------------------------5-------------12-12-12--11-9--7-----------------------------5-------------5--7-| 
A)|--5-------------------------3-------------10-10-10--9--7--5-----------------------------3-------------5--7-|
E)|------------------------------------------------------------------------------------------------------3--5-|

CHORUS:
->(1:56-2:14)x4
e)|-----------------------------------------------------------------------------|-Guitar 1
B)|-----------------------------------------------------------------------------|
G)|--9--9--9--9--9-----5--5--5--5--5--------------------------------------------| 
D)|--9--9--9--9--9-----5--5--5--5--5-----5--5--5--5--5-----7--7--7--7--7--------| 
A)|--7--7--7--7--7-----3--3--3--3--3-----5--5--5--5--5-----7--7--7--7--7--------|
E)|--------------------------------------3--3--3--3--3-----5--5--5--5--5--------|

e)|-----------------------------------------------------------------------------|-Guitar 2
B)|-----------------------------------------------------------------------------|
G)|--16-14-16-14-16~---16-14-16-14-16~---16-14-16-14-16~---16-14-16-17-16-14~---|
D)|-----------------------------------------------------------------------------| 
A)|-----------------------------------------------------------------------------|
E)|-----------------------------------------------------------------------------|

SOLO 1:
->(2:15-2:32)x2 [note] The next 2 steps are repeated for the first solo
e)|---------------------------------------------------------------|- Guitar 1
B)|---------------------------------------------------------------|
G)|---------------------------------------------------7-----------|
D)|------------------------7----7-9-7-9-10--9-10-9-10---10-9-7~---|
A)|--7~-----7-9-10--7~-------10-----------------------------------|
E)|---------------------------------------------------------------|

e)|---------------------------------------------------------------|- Guitar 2
B)|---------------------------------------------------------------|
G)|--9--------------9--------------5------------------------------|
D)|--9--------------9--------------5--------------5------7--------|
A)|--7--------------7--------------3--3-3-3-3-3-3-5------7--------|
E)|-----0-0-0-0-0-0----0-0-0-0-0-0----------------3----3-5----5---|

e)|------------------------12-14-12-14-15-14-15-17--15-17-15-17-19-17-15-14~-|- Guitar 1
B)|--------------------------------------------------------------------------|
G)|--------------------------------------------------------------------------|
D)|--------------------------------------------------------------------------|
A)|--7~-----7-9-10--7~-------------------------------------------------------|
E)|--------------------------------------------------------------------------|

e)|---------------------------------------------------------------|- Guitar 2
B)|---------------------------------------------------------------|
G)|--9--------------9--------------5---------------------12-------|
D)|--9--------------9--------------5--------------5------12-------|
A)|--7--------------7--------------3--3-3-3-3-3-3-5------10-10-10-|
E)|-----0-0-0-0-0-0----0-0-0-0-0-0----------------3--3-3----------|

SOLO 2:
->(2:33-2:51)
e)|------------------10----7---7----7---7----------------------------------|-Guitar 1
B)|--12~--12~--12~------10---8---10---8---10-------------10^-10-10-8-10-8--|
G)|-------------------------------------------9-(9)--8~--------------------|
D)|------------------------------------------------------------------------|
A)|----------------------------------------------*-------------------------|
E)|------------------------------------------------------------------------|

e)|----------------------------------------------------------------------------|
B)|----------------------------------------------------------------------------|
G)|-9-8-9-8-9-8~~------------------------------------------------9-5-----------|
D)|---------------------7---------9-7-----------9-5-----9-5----------9-6-------|
A)|----------------7-10---10-7-10-----10-7-6--------9-6-----9-6----------------|
E)|----------------------------------------------------------------------------|

             
e)|--------------------------------------------------------17-19-20-19-17---17-|
B)|--------------------------------------------------19-20----------------20---|
G)|--9-5----------------------12-9-------12-9----------------------------------|
D)|------9-6--7-4-----7-4----------12-10------12-10----------------------------|
A)|---------------7-5-----7-5--------------------------------------------------|
E)|----------------------------------------------------------------------------|

e)|-------------17--------------------------17-19-20-19-17----17--------------------------|
B)|-19-17-19-20----20-19-17-19-17-16--19-20----------------20----19-17-16-16--------------|
G)|----------------------------------------------------------------------------16-16~~~~--|
D)|---------------------------------------------------------------------------------------|
A)|---------------------------------------------------------------------------------------|
E)|---------------------------------------------------------------------------------------|  

e)|-----------------------------------------------------------------------|-Guitar 2
B)|-----------------------------------------------------------------------|
G)|-----------------------------------------------------------------------|
D)|--9--9--9--9--9-----7--7--7--7--7-----5--5--5--5--5-----7--7--7--7--7--|
A)|--9--9--9--9--9-----7--7--7--7--7-----5--5--5--5--5-----7--7--7--7--7--|
E)|--7--7--7--7--7-----5--5--5--5--5-----3--3--3--3--3-----5--5--5--5--5--|

SOLO 3:
->(2:51-3:09)[solo 1 again] Remember its repeated twice
e)|---------------------------------------------------------------|
B)|---------------------------------------------------------------|
G)|---------------------------------------------------7-----------| 
D)|------------------------7----7-9-7-9-10--9-10-9-10---10-9-7~---| 
A)|--7~-----7-9-10--7~-------10-----------------------------------|
E)|---------------------------------------------------------------|

e)|---------------------------------------------------------------|
B)|---------------------------------------------------------------|
G)|--9--------------9--------------5------------------------------| 
D)|--9--------------9--------------5--------------5------7--------| 
A)|--7--------------7--------------3--3-3-3-3-3-3-5------7--------|
E)|-----0-0-0-0-0-0----0-0-0-0-0-0----------------3----3-5----5---|  

e)|------------------------12-14-12-14-15-14-15-17--15-17-15-17-19-17-15-14~-|- Guitar 1
B)|--------------------------------------------------------------------------|
G)|--------------------------------------------------------------------------|
D)|--------------------------------------------------------------------------|
A)|--7~-----7-9-10--7~-------------------------------------------------------|
E)|--------------------------------------------------------------------------|

e)|---------------------------------------------------------------|- Guitar 2
B)|---------------------------------------------------------------|
G)|--9--------------9--------------5---------------------12-------|
D)|--9--------------9--------------5--------------5------12-------|
A)|--7--------------7--------------3--3-3-3-3-3-3-5------10-10-10-|
E)|-----0-0-0-0-0-0----0-0-0-0-0-0----------------3--3-3----------|

CHORUS:
->(3:10-3:47)x8
e)|-----------------------------------------------------------------------------|-Guitar 1
B)|-----------------------------------------------------------------------------|
G)|--9--9--9--9--9-----5--5--5--5--5--------------------------------------------| 
D)|--9--9--9--9--9-----5--5--5--5--5-----5--5--5--5--5-----7--7--7--7--7--------| 
A)|--7--7--7--7--7-----3--3--3--3--3-----5--5--5--5--5-----7--7--7--7--7--------|
E)|--------------------------------------3--3--3--3--3-----5--5--5--5--5--------|

e)|-----------------------------------------------------------------------------|-Guitar 2
B)|-----------------------------------------------------------------------------|
G)|--16-14-16-14-16~---16-14-16-14-16~---16-14-16-14-16~---16-14-16-17-16-14~---| 
D)|-----------------------------------------------------------------------------| 
A)|-----------------------------------------------------------------------------|
E)|-----------------------------------------------------------------------------|

ENDING CHORUS:
->(3:48-4:24)x2[play part 1 two times, then part 2 two times]         part 1
e)|---------------------------------------------------------------------------------|
B)|---------------------------------------------------------------------------------|
G)|--9-------------------5---------------------------------------7------------------| 
D)|--9-------------------5-------------------5-------------------7------------------| 
A)|--7-------------------3-------------------5-------------------5------------------|
E)|------------------------------------------3--------------------------------------|   
                                                                      part 2
e)|---------------------------------------------------------------------------------|-Guitar 1
B)|---------------------------------------------------------------------------------|
G)|---------------------------------------------------------------------------------| 
D)|--5--4~---5--5h7~~----5--4~---5--5h7~~----5--4~---5--5h7~~----5--4~--------------| 
A)|----------------------------------------------------------------------7--5~------|
E)|---------------------------------------------------------------------------------|

e)|---------------------------------------------------------------------------------|- Guitar 2
B)|---------------------------------------------------------------------------------|
G)|--9-------------------5---------------------------------------7------------------| 
D)|--9-------------------5-------------------5-------------------7------------------| 
A)|--7-------------------3-------------------5-------------------5------------------|
E)|------------------------------------------3--------------------------------------|

Well.... enjoy!
						-Derek DeSantis