Date: Thu, 12 Oct 2000 11:40:26 -0400
From: jehad h 
Subject: i/iron_maiden/the_thin_line_between_love_and_hate.tab

#-- File created with Instab - http://www.pconline.com/~smcarey/instab.html --#



Author/Artist: Iron Maiden
Title: the thin line between love & hate
Album: Brave New World
Transcribed by:jehad haddad 
Email: jehad101@yahoo.com


intro:
GTR1:PLAY IT TWICE
e|-----------------------------------------------------------------------------|
B|-----------------------------------------------------------------------------|
G|-----------------------------------------------------------------------------|
D|-----------------------------------------------------------------------------|
A|-----77----55----77-----------55----33----55-------------1212------1010------|
E|--55----88----55----88-77--33----66----33----66-55--1010------1313------1010-|

e|-----------------------------------------------------------------------------|
B|-----------------------------------------------------------------------------|
G|-----------------------------------------------------------------------------|
D|-----------------------------------------------------------------------------|
A|1212--------------88------------88-------------------------------------------|
E|----1313-1212--66----1010-88-66----1010-88-----------------------------------|

v:time of 2nd gtr.

GTR2:PLAY IT TWICE
   Am         G        Dm        A#m
e|-----------------------------------------------------------------------------|
B|-----------------------------------------------------------------------------|
G|-----------------------------------------------------------------------------|
D|--7---------5--------12---------8--------------------------------------------|
A|--7---------5--------12---------8--------------------------------------------|
E|--5---------3--------10---------6--------------------------------------------|

 riff a:play this right before 1st verse.
e|-----------------------------------------------------------------------------|
B|-----------------------------------------------------------------------------|
G|-------------------------5/7-7-7---------------------------------------------|
D|---5/7--7-77--7----------5/7-7-7---------------------------------------------|
A|---5/7--7-77--7----------3/5-5-5-6-5-3---------------------------------------|
E|---3/5--5-55--5-6-5-3--------------------------------------------------------|


verse:play it 2 times
e|----------|------------------------------------------------------------------|
B|----------|------------------------------------------------------------------|
G|------7-7-|----------------------------10-10---12-12-------------------------|
D|--7-7-7-7-|<-play 3 times-then play->--10-10---12-12-------------------------|
A|--7-7-5-5-|-----------------------------8--8---10-10-------------------------|
E|--5-5-----|------------------------------------------------------------------|


chorus:play it 4 times(2 gtrs)
gtr1:
     A       C          G       C          B#
e|-----------------------------------------------------------------------------|
B|-----------------------------------------------------------------------------|
G|-----------------------------------------------------------------------------|
D|---7--------10--------5------10-----------9----------------------------------|
A|---7--------10--------5------10-----------9----------------------------------|
E|---5---------8--------3-------8-----------7----------------------------------|

gtr2:
e|-----------------------------------------------------------------------------|
B|-----------------------------------------------------------------------------|
G|-5555555555555555555555555555555555555555555---------------------------------|
D|-----------------------------------------------------------------------------|
A|-----------------------------------------------------------------------------|
E|-----------------------------------------------------------------------------|

play riff a as a rythem for 1,2 solos
then play this part 2 times with intro:
e|-----------------------------------------------------------------------------|
B|-----------------------------------------------------------------------------|
G|-----------------------------------------------------------------------------|
D|---12h14-15h17p15\14-15-17-15~~--12h14-15h17p15\14-15-17-15~~----------------|
A|-----------------------------------------------------------------------------|
E|-----------------------------------------------------------------------------|

e|-----------------------------------------------------------------------------|
B|-----------------------------------------------------------------------------|
G|-------------------------14~~------------------------------------------------|
D|-12h14-15h17p15\14-15-17---------12h14-15h17p15\14-15-17-15~~----------------|
A|-----------------------------------------------------------------------------|
E|-----------------------------------------------------------------------------|

then playthis part 2 times also whith intro:
e|-----------------------------------------------------------------------------|
B|-----------------------------------------------------------------------------|
G|--17171717-15-14----14-15-14~~-------17171717-15-14----14-15-14~~------------|
D|-----------------17---------------------------------17-----------------------|
A|-----------------------------------------------------------------------------|
E|-----------------------------------------------------------------------------|
and right hear comes the 3rd solo whith intro once again.

riff b:(right after the 3rd solo)
gtr1:(accoustic) comes first....

e|------3~------------------3~-----------------3---3-----------------3---3-----|
B|------3~------------------3~-----------------3--3-3----------------3--3-3----|
G|------0~------------------0~-----------------0-0---0---------------0-0-------|
D|----2------------------0-------------------2---------------------0---------0-|
A|--0--------------------------------------0-----------------------------------|
E|---------------------3------------------------------------------3------------|

........then comes gtr2:(electric)
e|-----------------------------------------------------------------------------|
B|--12-13-15~~---15h17-15~~-13-12-13p12----------------------------------------|
G|-------------------------------------12--------------------------------------|
D|---------------------------------------12~~---12h14-12~~---------------------|
A|-----------------------------------------------------------------------------|
E|-----------------------------------------------------------------------------|

                                                 (bend half step then release)
e|-----------------------------------------------------------------------------|
B|--12-13-15~~---15h17-15~~-13-12-13p12----------------------------------------|
G|-------------------------------------12------12br~~--------------------------|
D|---------------------------------------12~~----------------------------------|
A|-----------------------------------------------------------------------------|
E|-----------------------------------------------------------------------------|


e|------3~------------------3~----------------3---3-----------------3---3------|
B|------3~------------------3~----------------3--3-3----------------3--3-3-----|
G|------0~------------------0~----------------0-0---0---------------0-0--------|
D|----2------------------0------------------2---------------------0---------0--|
A|--0-------------------------------------0------------------------------------|
E|---------------------3-----------------------------------------3-------------|
    
riff c:play solo #4 over this :
e|-----------------------------------------------------------------------------|
B|-----------------------------------------------------------------------------|
G|-----------------------------------------------------------------------------|
D|--7-77-7-7-7--101010---------5-55-5-5-5----5-5-5-----------------------------|
A|--7-77-7-7-7--101010---------5-55-5-5-5----5-5-5-----------------------------|
E|--5-55-5-5-5---8-8-8---------3-33-3-3-3----3-3-3-----------------------------|


part d: play this part over riff c right after the 4th solo:
e|-----------------------------------------------------------------------------|
B|-/131313-13p12-121212\10-101010-10h12-10-------------------------------------|
G|-----------------------------------------12~---------------------------------|
D|-----------------------------------------------------------------------------|
A|-----------------------------------------------------------------------------|
E|-----------------------------------------------------------------------------|

e|-----------------------------------------------------------------------------|
B|-/15-151515-15p13-131313-13p12-121212h13-12----------------------------------|
G|--------------------------------------------14~------------------------------|
D|-----------------------------------------------------------------------------|
A|-----------------------------------------------------------------------------|
E|-----------------------------------------------------------------------------|

then play solo #5 over the same riff(c).
then go back & play part d over the same riff(c).
then play riff c alone.
outro:play riff b (both gtrs)
   
                             

                                  the end

legend:
p:pull off
h:hammer on
b:bend
r:release
~:vibrato
/:slide up
\:slide down