Date: Mon, 20 Oct 2003 13:59:57 +0200
From: Joel Sorensson 
Subject: i/iron_maiden/the_fallen_angel.tab

song: the fallen angel
band: iron maiden
album: brave new world
tabbed by: joel (j_sorensson@hotmail.com)

Figure out where to mute yourself. There are some short leads
I didn't bother to tab, if you want them, figure them out yourself.


Triplet intro:  -Triplet formations for all notes.
e-------------------------------------------------
b-------------------------------------------------
g-------------------------7-7-7-5-5-5-4-7-5-4---4-
d---------------------------------------------7---
a-5-7-7-7-7-7-8-7-7-7-7-7-------------------------
e-------------------------------------------------

e-------------------------------------------------
b-------------------------------------------------
g-------------------------7-7-7-5-5-5-4-7-5-4---4-
d---------------------------------------------7---
a-5-7-7-7-7-7-8-7-7-7-7-7-------------------------
e-------------------------------------------------


Harmony guitar
e-------------------------------------------------
b-------------------------6-6-6-5-5-5---6-5-------
g-------------------------------------7-----7-5-7-
d-3-5-5-5-5-5-3-5-5-5-5-5-------------------------
a-------------------------------------------------
e-------------------------------------------------

Bm........

Harmony fill g1:    Harmony fill g2:     Harmony fill g3:
e-----------------  e------------------  e-----------------
b-----------------  b---------7-8-10-\-  b-----------------
g-----------------  g---6-7-9----------  g---------4-6-7-\-
d-------2-4-5-7-\-  d-9----------------  d---4-5-7---------
a-2-4-5-----------  a------------------  a-7---------------
e-----------------  e------------------  e-----------------


Heavy riff:
e-----------------------------------------------------------------
b-----------------------------------------------------------------
g---------------------7--7-----7----------------------5--5-----5--
d---------------------7--7--7--7----------------------5--5--5--5--
a-2-2-3-4-5-2-2-3-4-5-5--5--7--5--2-2-3-4-5-2-2-3-4-5-3--3--5--3--
e-0-0-1-2-3-0-0-1-2-3-------5-----0-0-1-2-3-0-0-1-2-3-------3-----


Verse part A:
e---------------------------------------------
b---------------------------------------------
g-------------------5---------------------7---
d-------------------5---------------------7---
a-2-222-2-222-2-222-3---2-222-2-222-2-222-5---
e-0-000-0-000-0-000----30-000-0-000-0-000----5


Verse part B g1:                 Verse part B g2:
e------------------------------  e-----------------------------
b------------------------------  b-----------------------------
g-----------------10--9--7--9--  g-----------------7--5-----5--
d-4-4-5-5-7-7-9-9--8--7--5--7--  d-------------5-5-------8-----
a-2-2-3-3-5-5-7-7--------------  a-5-5-7-7-8-8-----------------
e------------------------------  e-----------------------------

Chorus:  Holy f**k! An Iron Maiden-chorus with the chords Em,C,D!!
e----------------------*--*-----------------------------
b-------------------------------------------------------
g-9-----5-----7-----9--7--9-----5-----7-------------4-6-
d-9-----5-----7-----9--7--9-----5-----7-------4-5-7-----
a-7-777-3-333-5-555-7--5--7-777-3-333-5-555-7-----------
e-------------------------------------------------------

* =These chords are played one octave higher by another guitar.
   The scale at the end of the riff might be way off.


Solo1 backing:
C#5 /  / B5 / E5 D#5

Solo2 backing:
A5 /  /  G5 / C5 B5


Cool part:
e------------------------------------------
b------------------------------------------
g------------------------------------------
d-4-4-4-4-4-4-5-4-7----4-4-4-4-4-4-5-4-2---
a-2-2-2-2-2-2-3-2-5----2-2-2-2-2-2-3-2-0---
e------------------------------------------

.most. comments? corrections? questions? pics of cheese?
mail me.

_________________________________________________________________