Date: Tue, 06 May 1997 22:05:37 -0300
From: Raphael Miguel Lamim 
Subject: i/iron_maiden/lightning_strikes_twice.tab

IRON MAIDEN
LIGHTNING STRIKES TWICE
Transcripted by Raphael Lamim
e-mail: lamim@artnet.com.br


INTRO

e---------------------------------------------------------------|
B----------------5---5-7-5-------------------5---5-7-5h7p5------|
G-4--6h7-4--6h7----7-------7--4--6h7-4--6h7----7-----------7-4--|
D---------------------------------------------------------------|
A---------------------------------------------------------------|
E---------------------------------------------------------------|

e---------------------------------------------------------------|
B-------------------------------------------5-------------------|
G-4--6h7-7--6h7-7--6h7-7--6---4--6h7-7--6h7---7-4-6-------------|
D---------------------------7-----------------------------------|
A---------------------------------------------------------------|
E---------------------------------------------------------------|

e---------------------------------------------------------------|
B----------------------5-------------------5---5-7--------------|
G-4--6h7-7--6h7-7--6h7---7---4--6h7-7--6h7---7------------------|
D--------------------------7------------------------------------|
A---------------------------------------------------------------|
E---------------------------------------------------------------|

Use these notes to play the verse:

   Bm       G      Em      F#
e--[2]-----[3]-----[0]-----[2]---|
B--[3]-----[3]-----[0]-----[2]---|
G--[4]-----[4]-----[0]-----[3]---|
D--[4]-----[5]-----[2]-----[4]---|
A--[2]-----[5]-----[2]-----[4]---|
E--[2]-----[3]-----[0]-----[2]---|

And then, when the song gets heavier:

   B        G        E        F#
e------------------------------------------|
B------------------------------------------|
G--4-4-4-4--4-4-4-4-----------3-3-3-3------|
D--4-4-4-4--5-5-5-5--2-2-2-2--4-4-4-4------|
A--2-2-2-2--5-5-5-5--2-2-2-2--4-4-4-4------|
E-----------3-3-3-3--0-0-0-0--2-2-2-2------|


e-----------------------------------------------------------|
B-----------------------------------------------------------|
G-----------------------------------------------------------|
D--4-4-2-4-4---2-4-4-2-4-4---2-4-4-2-4-4--------------------|
A--2-2-0-2-2---0-2-2-0-2-2---0-2-2-0-2-2--5-5--2-2----------|
E-----------------------------------------3-3--0-0----------|


To the chorus, use:

  Maybe lightning ...
e--7-5-------------------------------------|
B--------7----5----------------------------|
G-------------------7-------4--------------|  8X
D------------------------------------------|
A------------------------------------------|
E------------------------------------------|

And then...

e--7-5--------------------------7-5------------5--|
B--------7----5---------------------7----5---7----|
G-------------------7-------4---------------------|
D-------------------------------------------------|
A-------------------------------------------------|
E-------------------------------------------------|



Any corrections, or adds are welcome

ENJOY!!!