From wigren@skelleftea.mail.telia.com Sun May  4 11:03:22 1997




I'VE GOT THE FIRE
Written by Ronnie Montrose.
Performed by IRON MAIDEN.
Taken from the single FLIGHT OF ICARUS.

Transcribed by Oskar "The Seventh Son" Wigren.
E-mail me at wigren@skelleftea.mail.telia.com

NOTE:
Original by MONTROSE, on album Paper Money.

Riff 1:
E---------------------------------------------------------|
B---------------------------------------------------------|
G--------3-----------3---5-3------------------------------|
D----3-5-----5-3-5-5---5-----5-4-3-------------3---5------|
A--5-------------------------------5-4-3-1-----1---3---5--|
E------------------------------------------3-----------3--|

Riff 2:
E-----------------------------------|-----------------------------------|
B-----------------------------------|-----------------------------------|
G-----------------------------------|-----------------------------------|
D-----------------------------------|-----------------------------------|
A------------------------5----------|------------------------5----------|
E--3-3-3-3-3-3-3-3-3-3-3-3---0-1-2--|--3-3-3-3-3-3-3-3-3-3-3-3---0-1-2--|

Verse:
1.If you're looking for someone that ....
2.So you think I'm skinny, don't ....
E----------------------------------------------------------------------|
B----------------------------------------------------------------------|
G------------------------3-----------------5---------------------------|
D--5---------------------3-----------------5-------------------5-------|
A--5---------------------1-----------------3-------------------5-------|
E--3-----------------------------------------------------------3-------|

And if you wanted something that's ...
Some like it wide, ....
E--------------------------------------------------------------------------------|
B--------------------------------------------------------------------------------|
G------------------------3-----------------5--------------------------3----------|
D--5---------------------3-----------------5-------------------5--------5---3-5--|
A--5---------------------1-----------------3-------------------5-----------------|
E--3-----------------------------------------------------------3-----------------|

And if you wanted someone to ....
So you think you can beat me by ...
E--------------------------------------------------------------------------|
B--------------------------------------------------------------------------|
G------------------------3-----------------5-----------------3---3---3-----|
D--5---------------------3-----------------5-----------------3---3---3-----|
A--5---------------------1-----------------3-----------------1---1---1-----|
E--3-----------------------------------------------------------------------|

Solo-riff:
E----------------------------------------------------------------------|
B----------------------------------------------------------------------|
G------------------------3-----------------5---------------------------|
D--5---------------------3-----------------5-------------------5-------|
A--5---------------------1-----------------3-------------------5-------|
E--3-----------------------------------------------------------3-------|

E--------------------------------------------------------------------------|
B--------------------------------------------------------------------------|
G------------------------3-----------------5-----------------3---3---3-----|
D--5---------------------3-----------------5-----------------3---3---3-----|
A--5---------------------1-----------------3-----------------1---1---1-----|
E--3-----------------------------------------------------------------------|

Songstructure:
Riff 1 (2 times)
Riff 2
Verse 1
Riff 1 (2 times)
Solo and drum bridge
Solo-riff
Riff 1
Riff 2
Verse 2
Riff 1 (2 times)


OSKAR WIGREN 1997-02-07