From wigren@skelleftea.mail.telia.com Sun May  4 11:04:00 1997




HOOKS IN YOU
Written by Bruce Dickinson and Adrian Smith.
Performed by IRON MAIDEN.
Taken from the album NO PRAYER FOR THE DYING.

Transcribed by Oskar "The Seventh Son" Wigren.
E-mail me at wigren@skelleftea.mail.telia.com

NOTE:
HOOKS IN YOU is the third
song in the Charlotte serie.
First comes CHARLOTTE THE HARLOT, then 22
ACACIA AVENUE, then HOOKS IN YOU and last
FROM HERE TO ETERNITY.

Riff 1:
E-------------------------------------|
B-------------------------------------|
G-------------------------------------|
D------9-----9-----7-----7-------7-6--|
A------7-----7-----5-----4------------|
E--0-0---0-0---0-0---0-0-------0------|

E---------------------------------|
B---------------------------------|
G---------------------------------|
D------9-----9---------------7-6--|
A------7-----7-------5---7-5------|
E--0-0---0-0---0-5-7---7----------|

Chorus:
Hooks in you, hooks in me, hooks ...
E---------------------------------|---------------------------------|
B--5-5-5-4-----5-5-5-4-----5-5-4--|--5-5-5-4-----5-5-5-4-----5-5-4--|
G--4-4-4-4-----4-4-4-4-----4-4-4--|--4-4-4-4-----4-4-4-4-----4-4-4--|
D--4-4-4-4-----4-4-4-4-----4-4-4--|--4-4-4-4-----4-4-4-4-----4-4-4--|
A--2-2-2-2-----2-2-2-2-----2-2-2--|--0-0-0-0-----0-0-0-0-----0-0-0--|
E---------------------------------|---------------------------------|

No big deal, no big sin, ...
E---------------------------------|---------------------------------|
B--5-5-5-4-----5-5-5-4-----5-5-4--|--5-5-5-4-----5-5-5-4-----5-5-4--|
G--4-4-4-4-----4-4-4-4-----4-4-4--|--4-4-4-4-----4-4-4-4-----4-4-4--|
D--4-4-4-4-----4-4-4-4-----4-4-4--|--4-4-4-4-----4-4-4-4-----4-4-4--|
A--2-2-2-2-----2-2-2-2-----2-2-2--|--0-0-0-0-----0-0-0-0-----0-0-0--|
E---------------------------------|---------------------------------|

Hooks in you, hooks in me, ...
E---------------------------------|---------------------------------|
B--5-5-5-4-----5-5-5-4-----5-5-4--|--5-5-5-4-----5-5-5-4-----5-5-4--|
G--4-4-4-4-----4-4-4-4-----4-4-4--|--4-4-4-4-----4-4-4-4-----4-4-4--|
D--4-4-4-4-----4-4-4-4-----4-4-4--|--4-4-4-4-----4-4-4-4-----4-4-4--|
A--2-2-2-2-----2-2-2-2-----2-2-2--|--0-0-0-0-----0-0-0-0-----0-0-0--|
E---------------------------------|---------------------------------|

No big deal, no big sin, ...
E---------------------------------|---------------------------------|
B--5-5-5-4-----5-5-5-4-----5-5-4--|--2---------------------------2--|
G--4-4-4-4-----4-4-4-4-----4-4-4--|--2---------------4-2-2-4-2-2-2--|
D--4-4-4-4-----4-4-4-4-----4-4-4--|--2---------------4-2-2-4-2-2-2--|
A--2-2-2-2-----2-2-2-2-----2-2-2--|--0---------------------------0--|
E---------------------------------|---------------------------------|

Riff 3:
   Hooks in you     I got those ...
E-----------------------------------------------------------------------|
B-----------------------------------------------------------------------|
G--9----------------5------------------------2--------------------------|
D--9----------------5------------------------2-----------------3--------|
A--7----------------3------------------------0-----------------3--------|
E--------------------------------------------------------------1--------|

   Hooks in you     I got ...
E--------------------------------------------|
B--------------------------------------------|
G--9----------------5------------------------|
D--9----------------5------------------------|
A--7----------------3------------------------|
E--------------------------------------------|

   Hooks in you     ....
E----------------------------------------------------|
B----------------------------------------------------|
G--2-------------------------------------------------|
D--2----------------3--------------------------------|
A--0----------------3--------------------------------|
E-------------------1-1-1-1-1-1-1-1-1-1-1-1-1-1-1-1--|

Solo-riff:
E-----------------------------------|-----------------------------------|
B-----------------------------------|-----------------------------------|
G-----------------------------------|-----------------------------------|
D--9--------------------------------|--5--------------------------------|
A--7-7-7-7-7-7-7-7-7-7-7-7-7-7-7-7--|--3-3-3-3-3-3-3-3-3-3-3-3-3-3-3-3--|
E-----------------------------------|-----------------------------------|

E-----------------------------------|--------------------------------|
B-----------------------------------|--------------------------------|
G-----------------------------------|--------------------------------|
D--2--------------------------------|--------------------------------|
A--0-0-0-0-0-0-0-0-0-0-0-0-0-0-0-0--|--3-----3-----3-----3-----3--3--|
E-----------------------------------|--1-1-1-1-1-1-1-1-1-1-1-1-1--1--|

E-----------------------------------|-----------------------------------|
B-----------------------------------|-----------------------------------|
G-----------------------------------|-----------------------------------|
D--9--------------------------------|--5--------------------------------|
A--7-7-7-7-7-7-7-7-7-7-7-7-7-7-7-7--|--3-3-3-3-3-3-3-3-3-3-3-3-3-3-3-3--|
E-----------------------------------|-----------------------------------|

E-----------------------------------|--------------------------------|
B-----------------------------------|--------------------------------|
G-----------------------------------|--------------------------------|
D--2--------------------------------|--------------------------------|
A--0-0-0-0-0-0-0-0-0-0-0-0-0-0-0-0--|--3-----3-----3-----3-----3--3--|
E-----------------------------------|--1-1-1-1-1-1-1-1-1-1-1-1-1--1--|

E-----------------------------------|-----------------------------------|
B-----------------------------------|-----------------------------------|
G-----------------------------------|-----------------------------------|
D--6--------------------------------|--2--------------------------------|
A--4-4-4-4-4-4-4-4-4-4-4-4-4-4-4-4--|--0-0-0-0-0-0-0-0-0-0-0-0-0-0-0-0--|
E-----------------------------------|-----------------------------------|

E-----------------------------------|--------------------------------|
B-----------------------------------|--------------------------------|
G-----------------------------------|--------------------------------|
D-----------------------------------|--2-----2-----2-----2-----2--2--|
A--4--------------------------------|--0-0-0-0-0-0-0-0-0-0-0-0-0--0--|
E--2-2-2-2-2-2-2-2-2-2-2-2-2-2-2-2--|--------------------------------|

Riff 4:
   Hooks in you                        I got ...
E-----------------------------------|-----------------------------------|
B-----------------------------------|-----------------------------------|
G-----------------------------------|-----------------------------------|
D--9--------------------------------|--5--------------------------------|
A--7-7-7-7-7-7-7-7-7-7-7-7-7-7-7-7--|--3-3-3-3-3-3-3-3-3-3-3-3-3-3-3-3--|
E-----------------------------------|-----------------------------------|

   Hooks in you                        ...
E-----------------------------------|-----------------------------------|
B-----------------------------------|-----------------------------------|
G-----------------------------------|-----------------------------------|
D--2--------------------------------|-----------------------------------|
A--0-0-0-0-0-0-0-0-0-0-0-0-0-0-0-0--|--3--------------------------------|
E-----------------------------------|--1-1-1-1-1-1-1-1-1-1-1-1-1-1-1-1--|

   Hooks in you                     I got ...
E--------------------------------|--------------------------------|
B--------------------------------|--------------------------------|
G--------------------------------|--------------------------------|
D--9-----9-----9-----9-----9--9--|--5-----5-----5-----5-----5--5--|
A--7-7-7-7-7-7-7-7-7-7-7-7-7--7--|--3-3-3-3-3-3-3-3-3-3-3-3-3--3--|
E--------------------------------|--------------------------------|

   Hooks in ...
E--------------------------------|--------------------------------|
B--------------------------------|--------------------------------|
G--------------------------------|--------------------------------|
D--2-----2-----2-----2-----2--2--|--------------------------------|
A--0-0-0-0-0-0-0-0-0-0-0-0-0--0--|--3-----3-----3-----3-----3--3--|
E--------------------------------|--1-1-1-1-1-1-1-1-1-1-1-1-1--1--|

E-----------------------------------|
B-----------------------------------|
G-----------------------------------|
D--7-6---7-6---7-6---7-6---7-6---9--|
A------7-----7-----7-----7----7--7--|
E-----------------------------------|

Songstructure:
Riff 1 (6 times)
Chorus
Riff 1 (4 times)
Chorus
Riff 3
Solo-riff
Riff 1 (2 times)
Chorus
Riff 4


OSKAR WIGREN 1997-02-07