Date: Fri, 30 Aug 2002 18:15:29 +0200
From: Berit Tysland 
Subject: i/iron_maiden/brave_new_world.tab

Author/Artist: Iron Maiden

Title: Brave New World

Album: Brave New World

Transcribed by: Swen O. Heiland

Email: sonofagun@t-online.de



-----------------------------------|----------------------------------|-------
------6-----5-----8-----6-----5----|-----6-----5-----8-----6-----5----|-------
-----------------------------------|----------------------------------|-------
----7-----7-----7-----7-----7------|---7-----7-----7-----7-----7------|-------
--5-----5-----5-----5-----5--------|-5-----5-----5-----5-----5--------|-------
-----------------------------------|----------------------------------|-------

Intro: Guitar 1 [muted and
clean]



-----------------------------------|----------------------------------|-------
--10--------13---------8-----------|--6-----------8---------8---------|-------
--9---------12---------7-----------|--5-----------7---------7---------|-------
--7---------10---------5-----------|--3-----------5---------5---------|-------
-----------------------------------|----------------------------------|-------
-----------------------------------|----------------------------------|-------

Intro: Guitar 2
[clean]



-----------------------------------|----------------------------------|-------
------6-----5-----8-----6-----5----|-----6-----5-----8-----6-----5----|-------
-----------------------------------|----------------------------------|-------
----7-----7-----7-----7-----7------|---7-----7-----7-----7-----7------|-------
--5-----5-----5-----5-----5--------|-5-----5-----5-----5-----5--------|-------
-----------------------------------|----------------------------------|-------





-----------------------------------|----------------------------------|-------
--10---------13-----8--6--8--8/10--|----------------------------------|-------
--9----------12-----7--5--7--7/9---|----------------------------------|-------
--7----------10-----5--3--5--5/7---|----------------------------------|-------
-----------------------------------|----------------------------------|-------
-----------------------------------|----------------------------------|-------





-----------------------------------|------------------------------------------
-----------------------------------|------------------------------------------
-5--------5--------5--------5------|------------------------------------------
-5--5--5--5--5--5--5--5--5--5------|