BLACK NIGHT INTRO
As recorded by Deep Purple
(From the 2001 Album LIVE IN JAPAN)
Transcribed by Tavs Enderleit
[email protected]	Words and Music by Deep Purple
Arranged by Deep Purple	

Gtr I tuning (E A D G B E) 

Learn to play this riff extremely fast, and listen to the cd, to achieve the best timing.
Black Night Intro
4/4
Gtr I (w/wide distortion)
|---------------------------------------|
|---------------------------------------|
|---------------------------------------|
|----5-----------------5-----7--5-------|
|-7-----7--5-----5--7-----7--------7----|
|-------------7-------------------------|


|-------------------|
|-------------------|
|-------------------|
|-----------5-------|
|-5--7---------7----|
|-------------------|


|-----------------------------------------|
|-----------------------------------------|
|-----------------------------------------|
|------5-----------------5-----7--5-------|
|-5/7-----7--5-----5--7-----7--------7----|
|---------------7-------------------------|


|-------------------|
|-------------------|
|-------------------|
|-----------5-------|
|-5--7---------7----|
|-------------------|

---

Articles liés :

Pin It on Pinterest

Spelling error report

The following text will be sent to our editors: