Up Around The Bend
Tabber: Roger Olofsson ([email protected])

D
There's a place up ahead and I'm goin'
A                  A7       D
Just as fast as my feet can fly.
D
Come away, come away if you're goin',
A                 A7     D
Leave the sinkin' ship behind.
G         D      A
C'mon the risin' wind,
       G         D        A
We're goin' up around the bend. Whoooh.

[...]

Git 1   measure 1

E-----------10-----------------------|----------10-----------------------|
B--------------10-----10-------------|-------------10----10--------------|
G------9h11-------11-----------------|-----9h11-------11-----------------|
D---0--------------------------------|--0--------------------------------|
A------------------------------------|-----------------------------------|
e------------------------------------|-----------------------------------|

Git 1   measure 3

E----------10------------------------|----------5------------------------|
B-------------10----10---------------|------------5---5------------------|
G-----9h11-------11------------------|-----4h6------6--------------------|
D---0--------------------------------|-----------------------------------|
A------------------------------------|--0 -------------------------------|
e------------------------------------|-----------------------------------|

Chords:

G:      3       D:      x       A:      x
        2               x               0
        0               0               2
        0               2               2
        3               3               2
        3               2               0

Articles liés :

Pin It on Pinterest

Spelling error report

The following text will be sent to our editors: