UP AROUND THE BEND - Creedence Clearwater Revival  
J.C  Fogerty


Here comes....

9/11 means slide from fret 9 to fret 11

intro

E---------------10-------------------------------10---------------------
B--------------------10------10----------------------10--------10-----
G-------9/11------------11--------------9/11-------------11----------
D---0---------------------------------0--------------------------------
A-----------------------------------------------------------------------
E----------------------------------------------------------------------


E------------------5-----------------------------10--------------------
B---------------------5--------5----------------------10--------10---
G-----------4/6----------6---------------9/11-------------11---------
D------------------------------------0----------------------------------
A-----0-----------------------------------------------------------------
E----------------------------------------------------------------------


D
Theres a place up ahead and I'm going 
A                                       D
just as fast as my feet can fly
D
Come away come away if you're going
A                                 A
Leave the sinking ship behind

CHORUS:
G                  A       D
Come on the rising wind
G                     A               D              
We're going up around the bend

Bring a song and a smile for the banjo
Better get while the getting's good
Hitch a ride to the end of the highway
Where the neons turn to wood

CHORUS

(repeat intro twice and then strum chorus chords 
or play that mini solo if you can - I can't!)

Oooh  Catch a ride to the end of the highway
And we'll meet by the big red tree
There's a place up ahead and I'm going 
Come along come along with me

CHORUS

  Then there's this bit which is probably wrong 
but as a guide, it should be enough for you to work it out

E-----2---3---5------2---3---5-------2---3---5----2-----------
B-----------------------------------------------------------------
G-----------------------------------------------------------------
D-----------------------------------------------------------------
A------------------------------------------------------------------
E------------------------------------------------------------------


E----2---3---5------2---3----5-----2------------------------------
B-----------------------------------------3-------------------------
G------------------------------------------------------------------
D------------------------------------------------------------------
A------------------------------------------------------------------
E------------------------------------------------------------------

fades out with this and John Fogerty going Doo Doo Doo Doo
along with the tune.


------
[email protected]

Articles liés :

Pin It on Pinterest

Spelling error report

The following text will be sent to our editors: