RUN THROUGH THE JUNGLE 

by Creedence Clearwater Revival
Words & Music written by John Fogerty
Album: Cosmo's Factory (1970)



INTRO:
                                
E|-----15b----------17b------------|
B|---------------------------------|
G|---------------------------------|
D|---------------------------------|
A|---------------------------------|
E|---------------------------------|

MAIN RIFF:

E|--------------------------------------------------------------------|
B|--3----------------------------------------3--3--3--6--3--3---------|
G|-----2---5--5--2-------------------------2--2--2--5--2--2-----------|
D|---------------------3--0---------0---------------------------------|
A|-----------------------------0h3------------------------------------|
E|--------------------------------------------------------------------|

VERSE 1:

Whoa, thought it was a nightmare,
Lo, it's all so true,
They told me, "Don't go walkin' slow
'Cause Devil's on the loose." 

CHORUS:

Better run through the jungle,
Better run through the jungle,
Better run through the jungle,
Woa, Don't look back to see.

VERSE 2:

Thought I heard a rumblin'
Callin' to my name,
Two hundred million guns are loaded
Satan cries, "Take aim!"

[CHORUS]

HARMONICA SOLO (for guitar):

(Bend all the e8 and b9s together a half step)

E|--8--8--8--8--8--8--8/------8/---------|----8/---10--9----------------------| 
B|--9--9--9--9--9--9--9/3----9/3---------|--9/---------8----3-3---------------|
G|---------------------------2-------2---|-----------------------2--2---------| 
D|---------------------------------------|------------------------------0-----| 
A|---------------------------------------|------------------------------------|
E|---------------------------------------|------------------------------------|

End of the harmonica solo

E|--8--8--------------------|
B|--9--9/3-------3----------|
G|-------------5------------|
D|--------------------------|
A|--------------------------|
E|--------------------------|


VERSE 3:

Over on the mountain
Thunder magic spoke,
"Let the people know my wisdom,
Fill the land with smoke."

[CHORUS]

[HARMONICA SOLO]

---

Articles liés :

Pin It on Pinterest

Spelling error report

The following text will be sent to our editors: