PAGAN BABY
>>>>>>>>>>>>>>>>>>>>>>>>>>>
writtten by John C. Fogerty


opening riff:    8 times

e--------------------
B--------------------
G-------9---7-9-7----
D---5s7---9----------
A--------------------
E--------------------

E  A  E  A  E



E        A E		    A    E    E A E
Pagan Baby, won't you walk with me
E        A E		  A    E   E A E
Pagan Baby, come on home with me
E        A E           A	E A E
Pagan baby, take me for a ride
E           A E  	      A       E     E A E
Roll me, baby, roll your big brown eyes.

Bridge:  A  D  E     E A E      A  D  E    E A E


Pagan Baby, let me make your name
Drive it, baby, drive your big love game
Pagan baby, what you got I need
Don't be savin', spread your love on me

Bridge few times

on tempo:   E  G-A

Pagan Baby, Now won't you rock with me?
Pagan baby, Lay your love on me

solo over  E G-A , bridge and over changing betw. E D   ....find your own way

little solo riff (whole solo anybody?)

e-----10-11-12-12~~~~~~-----
B--12-----------------------
G---------------------------
D---------------------------
A---------------------------
E---------------------------

~~~...hold note

Hey! Hey! etc.

outro chord:  E


----
[email protected]

Articles liés :

Pin It on Pinterest

Spelling error report

The following text will be sent to our editors: