Song- Wrong Way 
Written by- Creed 
Transcribed by- Eric DiRezze 
Tuning- DADGBe 
 
 
  I   Play 7x 
e-----------------------------------------------------------| 
B-----------------------------------------------------------| 
G-----------------------------------------------------------| 
D----------0-0---------0-------3-3-0-----------0-----0---0--| 
A------6-6---------3h5---5-----------5-----3h5---5----------| 
D--0-0---------0-0---------0-0---------0-0---------3---1----| 
 
 
  II   8th Time 
e------------------------------------------------------------| 
B------------------------------------------------------------| 
G------------------------------------------------------------| 
D----------0-0-------------0----3-3--0-----------0-----0---0-| 
A------6-6----------3h44h5---5---------5-----3h5---5---------| 
D--0-0---------0-0-----------------------0-0---------3---1---| 
 
 
  III   9th Time 
e------------------------------------------------ 
B------------------------------------------------ 
G------------------------------------------------ 
D----------0-0---------0--------3p0p3p0p3p0p3p0p- 
A------6-6---------3h5---5----------------------- 
D--0-0---------0-0---------0-0------------------- 
 
 
                                  | I 4x  | II  | I  | III | 
e---------------------------------|-------|-----|----|-----| 
B-------------------6-----5-------|-------|-----|----|-----| 
G-------------------5-----4-------|-------|-----|----|-----| 
D-2p0p2p0p2p0p2p0---3-----2-------|-------|-----|----|-----| 
A-------------------3-----2-------|-------|-----|----|-----| 
D-------------------3-----2-------|-------|-----|----|-----| 
 
 
 Chorus 
e--------------------------------| 
B--3-----------8-----6-----5-----| 
G--2-----5-----7-----5-----4-----| 
D--0-----5-----5-----3-----2-----| 
A--0-----3-----5-----3-----2-----| 
D--0-----x-----5-----3-----2-----| 
 
 
 
 
 
 
 
 
 
 Interlude             Play 6x  * 
e--------------------|------------------------------------- 
B--3-----------8-----|------------------------------------- 
G--2-----5-----7-----|------------------------------------- 
D--0-----5-----5-----|------------------------------------- 
A--0-----3-----5-----|--------5-5-5-------4-4-4-5-5-4-4---- 
D--0-----x-----5-----|--0-0-0-------0-0-0---------------0-0 
 
 
e-------------------------------| 
B-------------------------------| 
G-------------------------------| 
D-------------------------------| 
A-------------------------------| 
D--0-8-8-8-0-0-0-7-0-7-8-7-5b---| 
 
 
 Play 3x 
e--------6---------------------------0------|--------6-------- 
B----------6-----------------------3---3----|----------6------ 
G------8-----8---5-------3-------2-------2--|------8-----8---5 
D----8-------------5-------1---0------------|----8------------ 
A--6-----------3----------------------------|--6-----------3-- 
D----------------------1--------------------|----------------- 
 
 
                | Play 3x         | 4th Time  
e---------------|-----------------|----------------------------- 
B---------------|--3--------------|--3--------*-*-*--6----5----- 
G--------3------|--2-3-5---7/8/7--|--2-3-5-----------5----4----- 
D--5-------1----|--0-1-5-0-x-x-x--|--0-1-5-0--8-7-5--3----2----- 
A---------------|--0-1-3-0-5/6/5--|--0-1-3-0--8-7-5--3----2----- 
D------1--------|--0-1-x-0-0------|--0-1-x-0--8-7-5--3----2----- 
 
 
e----------------------------| 
B----------------------------| 
G-------Chorus Out-----------| 
D-----------3x---------------| 
A----------------------------| 
D----------------------------| 
 
 
 KEY: * = muffle strings w/ right hand 
      b = bends 
      h = hammer string 
      p = pull-off 
      x = muffled string(s)