Song- Intro To "What's This Life For" 
Written by- Creed 
Transcribed by- Waldon Reed 
Tuning- EADGBe 
 
 
 Play 4x 
e------------------------0--------------------- 
B--0h1-----1p0---0-----0---0---3-1-1p0--------- 
G------0-------2---2-0-------0---------2p0----- 
D-------0-------------------------------------- 
A--------------2-----3---------3--------------- 
E--3------------------------------------------- 
 
        Play 2x 
e--0--|------------------------------------------------------ 
B--0--|--0h1p0-------0-0h1-----1-------1-0-3-1-0-------0----- 
G-----|--------2---2-------0---------0-----------0h3p0---2--- 
D-----|----------2-----------0---0h2------------------------- 
A--0--|----------------3------------------------------------- 
E-----|----------------------------------3------------------- 
 
 
e-----------|------------------ 
B-----3-0---|--0----0--0------- 
G--0--------|------------------ 
D-----------|------------------ 
A-----------|--3/5--3--3-2-0--- 
E--1--------|------------------ 
 
 Play 
e--0--------------0-------------- 
B----0--------------0------------ 
G------5-7-7\10-9-----9-9-7--5--- 
D-------------------------------- 
A--------0-0----0-----0-0-0--0--- 
E-------------------------------- 
 
 End with 
e---0-----------0-----0------- 
B-----0-----------0-----0----- 
G-------5-5-4-2-----2-----2--- 
D----------------------------- 
A-------0-0-0-0--------------- 
E----------------------------- 
 
 
 
 
 
 
 
 
 
Song- What's This Life For 
Written by- Creed 
Transcribed by- David Sobka 
Tuning- EADGBe 
 
 
 1st time only 
e--3----3--|--0-------2-2h3p2---------------2--2-------3------- 
B--3----3--|--------3---------3-------------2--2---------3----- 
G--0----0--|------2-------------0--------4--4--4-----5-----5--- 
D--0----0--|----0----------------------4----4--4---5---------0- 
A--2----2--|------------------------2------------3------------- 
E--3-------|--------------------------------------------------- 
 
 
 Verse 
e--------3---0-------2-2h3p2---------------2---2-------3------- 
B--------3---------3---------3----------4--2---2---------3----- 
G--------0-------2-------------0------4----4---4-----5-----5--- 
D------0-------0-------------------2-------4---4---5---------0- 
A----2-------------------------------------------3------------- 
E--3----------------------------------------------------------- 
 
 
 Chorus 
e-------------------------- 
B-------------------------- 
G--4-----5-----4-----5----- 
D--5-----5-----4-----5----- 
A--5-----7-----2-----3----- 
E--3-----x-----x-----x----- 
 
 
 End Verse 
e-3---3-3--3--3--3-3-3-3--3-3-3---3--3-3--3--3--3-3-3-3-3-3-3- 
B-3---3-3--3--3--3-3-3-3--3-3-3---3--3-3--3--3--3-3-3-3-3-3-3- 
G-0---0-0--0--0--0-0-0-0--0-0-0---0--0-0--0--0--0-0-0-0-0-0-0- 
D-0---0-0--0--0--0-0-0-0--0-0-0---0--0-0--0--0--0-0-0-0-0-0-0- 
A-2---2-2--2--2--2-2-2-2--2-2-2---2--2-2--2--2--2-2-2-2-2-2-2- 
E-3---3-3--3--3--3-3-3-3--3-3-3---3--3-3--3--3--3-3-3-3-3-3-3- 
 
 
e-0--0-0-0-0--0--0-0-0-0-0-0-0-0-0-0-0-0-0--0-0-0-0--2--2-2- 
B-1--1-1-1-1--0--0-0-0-1p0-0-0h1-1-1-0-0-0--1-0-0-0--3--3-3- 
G-0--0-0-0-2--0--0-0-0-2-2-2-2-2-2-2-2-2-2--2-2-2-2--2--2-2- 
D-2--2-2-2-2--2--2-2-2-2-2-2-2-2-2-2-2-2-2--2-2-2-2--0--0-0- 
A-3--3-3-3-3--3--3-3-3-3-3-3-0-0-0-0-0-0-0--0-0-0-0--------- 
E----------------------------------------------------------- 
 
 
e-2-3--3-3-3p2-2--0--0-0-0-0-0-0-0-0-0-0-0--3--3-3-3--3--3-3- 
B-3-3--3-3-3-3-3--1--1-1-1-0-0-0-0-0h1-1-1--3--3-3-3--3--3-3- 
G-2-2--2-2-2-2-2--0--0-0-0-0-0-0-0-0-0-0-0--0--0-0-0--0--0-0- 
D-0-0--0-0-0-0-0--2--2-2-2-2-2-2-2-2-2-2-2--0--0-0-0--0--0-0- 
A-----------------3--3-3-3-3-3-3-3-3-3-3-3--2--2-2-2--2--2-2- 
E-------------------------------------------3--3-3-3--3--3-3- 
 
 
e-3--3-3--3-3--3-3-3-3--3-3-3-- 
B-3--3-3--3-3--3-3-3-3--3-3-3-- 
G-0--0-0--0-0--0-0-0-0--0-0-0-- 
D-0--0-0--0-0--0-0-0-0--0-0-0-- 
A-2--2-2--2-2--2-2-2-2--2-2-2-- 
D-3--3-3--3-3--3-3-3-3--3-3-3-- 
 
 
 
 KEY: h = hammer 
      P = pull off 
      X = muffle string(s)