Song- Say I 
Written By- Creed 
Transcribed by- Eric DiRezze, David Sobka & Waldon Reed 
Tuning- DADGBe 
 
 
 Intro/CHORUS             (let ring before verse) 
e--------------------------|-------------------- 
B--------------------------|-------3--3--3--3--- 
G--*-*--*-3-*-*-*-3-*-*-3------2---2--2--2--2--- 
D--3-3--3-3-0-1-1-3-1-1-3--0---0---0--0--0--0--- 
A--3-3--3-5-0-1-1-1-1-1-1--0---0---0--0--0--0--- 
D--3-3--3-x-0-1-1-x-1-1-x--0---0---0--0--0--0--- 
 * = slight palm mute 
 
 
 VERSE 
 Let ring through out                      | (Before BRIDGE) 
e-----5--------------------|---------------|----------------- 
B--------3--------3--------|------8-----7--|------8-----7---- 
G-------------2\3---3p0-2--|----8-----7----|----8-----7---7-- 
D--0--------0--------------|--0-----0------|--0-----0-------- 
A------------------------------------------|----------------- 
D------------------------------------------|----------------- 
 
 
 BRIDGE 
e----------------------------------------------------------- 
B-----10---10---10---10---10------10---10---10---10---10---- 
G----8----8----8----8----8---8---7----7----7----7----7---7-- 
D--0----0----0----0----0-------0----0----0----0----0-------- 
A----------------------------------------------------------- 
D----------------------------------------------------------- 
 
 
e----------------------------------------------------------- 
B-----10---10---10---10---10------10---10---10---10---10---- 
G----8----8----8----8----8---8---7----7----7----7----7---7-- 
D--0----0----0----0----0-------0----0----0----0----0-------- 
A----------------------------------------------------------- 
D----------------------------------------------------------- 
 
 
e----------------------------------------------------------- 
B-----10---10---11---10---10------10---10---11---10---10---- 
G----8----8----8----8----8---8---7----7----7----7----7---7-- 
D--0----0----0----0----0-------0----0----0----0----0-------- 
A----------------------------------------------------------- 
D----------------------------------------------------------- 
 
 
 
 
 
 
 
 
 
e----------------------------------------------------------- 
B---10-10-10-10-10-10-10-10-10-10-10-10-10-10-10-10--------- 
G---8---8--8--8--8--8--8--8--8--7--7--7--7--7--7--7--7-7-7-- 
D-0-----0--0--0--0--0--0--0--0--0--0--0--0--0--0--0--0-0-0-- 
A----------------0--0--0--0--0--0--0--0--0--0--0--0--0-0-0-- 
D----------------------------------------------0--0--0-0-0-- 
 
 
 Play - CHORUS, VERSE, BRIDGE, CHORUS 
 
 
 Vocal Interlude              (w/ wah peddle) 
e-------------------------|----|------------- 
B-------------------------|------------------ 
G--*-*-*--2x--------2~ ---|---13v------------ 
D--0-0-0--0x----0-0-0~ ---|------------------ 
A--0-0-0--0x----0-0-0~ ---------------------- 
D--0-0-0--0x----0-0-0~ ---------------------- 
 
 
 Guitar  Interlude 
e--5-5-5-5-5-5-5-5-5-5-5-5-5-5-5-5-- 
B--3-3-3-3-3-3-3-3-3---------------- 
G--------------------0-2-3-0-3-0-2-- 
D--0-0-0-0-0-0-0-0-0---------------- 
A----------------------------------- 
D----------------------------------- 
 
 
Played w/ Clean Tone 
e-------------------- 
B--------------3----- 
G--5-----3-----2----- 
D--3-----1-----0----- 
A--3-----1-----0----- 
D--3-----1-----0----- 
 
 
 2x 
e----------------------------------------------------| 
B----------------------------------------------------| 
G--*-*--*-3-*-*-*-3-*-*-3----------------------------| 
D--3-3--3-3-0-1-1-3-1-1-3--0-0-----------------------| 
A--3-3--3-5-0-1-1-1-1-1-1--0-0--5h6-5v-0-0-0-5h6-5v--| 
D--3-3--3-x-0-1-1-x-1-1-x--0-0--0---0--0-0-0-0---0---| 
 
 
 
 
 
 
 
 
 
 
 
 
e----------------------------------------------- 
B----------------------------------3--3--3--3--- 
G--*-*--*-3-*-*-*-3-*-*-3------2---2--2--2--2--- 
D--3-3--3-3-0-1-1-3-1-1-3--0---0---0--0--0--0--- 
A--3-3--3-5-0-1-1-1-1-1-1--0---0---0--0--0--0--- 
D--3-3--3-x-0-1-1-x-1-1-x--0---0---0--0--0--0--- 
 
 
e------------------------------------| 
B------------------------------------| 
G--*-*--*-3-*-*-*-3-*-*-3--*--*---2--| 
D--3-3--3-3-0-1-1-3-1-1-3--0--0---0--| 
A--3-3--3-5-0-1-1-1-1-1-1--0--0---0--| 
D--3-3--3-x-0-1-1-x-1-1-x--0--0---0--| 
 
 
 
 
 KEY: h = hammer 
      P = pull off 
      V = vibrate string 
      X = muffle string(s) 
      ~ = hold