Song- Ode 
Written by- Creed 
Transcribed by- David Sobka, Eric DiRezze & Waldon Reed 
Tuning- DADGBe 
 
 
 
 Intro   Play 4x                    |  I 
e-----------------------------------|----------------------- 
B-----------------------------------|----------------------- 
G-----------------------------------|----------------------- 
D-0-0-0-7-0-6v~ --0-0-0-7-0-6-0-4v~ |-0-0-0-7-0-6-0-4-0-5-0- 
A-----------------------------------|----------------------- 
D-----------------------------------|----------------------- 
 
 
                  ^-Harmonics                             | 
e-------------|-------------------------------------------| 
B-------------|-------------------------------------------| 
G-------------|-------------------------------------------| 
D--2-0-3-2-1--|--4^-4^-0-0-0-0-4^-4^-0-0-0-0-4^-4^-4^-4^--| 
A-------------|-------------------------------------------| 
D-------------|-------------------------------------------| 
 
 
 Verse  8x 
e-----------------------------------| 
B-----------------------------------| 
G-----------------------------------| 
D--0-0-0-7-0-6-0-4-0-5-0-2-0-3-2-1--| 
A--0-0-0-7-0-6-0-4-0-5-0-2-0-3-2-1--| 
D--0-0-0-7-0-6-0-4-0-5-0-2-0-3-2-1--| 
 
 
 Chorus   (strum chords) 
e------------------------------------------------ 
B------------------------------------------------ 
G--------4-----7--------------------------------- 
D--0-----2-----5---------------4-0------2-------- 
A--0-----2-----5-----5-----3-5------3-5---3------ 
D--0-----2-----5-------0-0------------------3b--- 
 
 
                    |(Repeat 4x @ approx. 2min.50sec.) 
e-------------------|--------------------------------- 
B-------------------|--------------------------------- 
G--2-----4-----7-------------------------------------- 
D--0-----2-----5-------------3-4-5-------3-4-5-------- 
A--0-----2-----5-------3-4-5-------3-4-5-------3-5-3-- 
D--0-----2-----5-------------------------------------- 
 
 
 
 
 
 
 
 
 Rf.A 
  2x                          |  I  | 
e----------|------------------|-----|---------|----------| 
B---7x-----|------------------|-----|---------|----------| 
G----------|------------------|-----|--Verse--|--Chorus--| 
D-12-11-0--|-----1-2-3-3-2-1--|-----|----8x---|----------| 
A-12-11-0-----12-1-2-3-3-2-1--|-----|---------|----------| 
D-12-11-0-----12-1-2-3-3-2-1--|-----|---------|----------| 
 
 Riff A 
 
(After Chorus 2nd time) 
(3:13-3:22), (4:22-4:31) 
 
 Rf. B 
  2x  
e-------------|------------------ 
B-----7x------|------------------ 
G-------------|------------------ 
D-------------|-----1-2-3-3-2-1-- 
A-------------|--12-1-2-3-3-2-1-- 
D-**12-11-0---|--12-1-2-3-3-2-1-- 
 
 
 
 KEY: ** = palm muting 
       ~ = hold 
       b = bend 
       v = vibrate string