Song- Never Die 
Album- Human Clay 
Written By- Creed 
Transcribed- Eric DiRezze, David Sobka Jr., & Waldon reed Jr. 
Tuning- DADGBe 
 
Intr. / Verse 
e--------------------------------- 
B--------------------------------- 
G--8-b-r---3-b-r---7-b-r---2-b-r-- 
D--------------------------------- 
A--------------------------------- 
D--6-------1-------5-------0------ 
 
Chorus 
e-------------------------------------------------------------------------- 
B-------------------------------------------------------------------------- 
G-------------8br------3--3b-----7br------2-2b--------------6br------3--3-- 
D-------------6--------1--1------5--------0-0---------------8--------1--1-- 
A--0-0--0-0---6----0-0-1--1--0-0-5----0-0-0-0----0-0--0-0---8----0-0-1--1-- 
D--0-0--0-0---6----0-0-1--1--0-0-5----0-0-0-0----0-0--0-0---8----0-0-1--1-- 
 
e------------------------------------------------------------------------------ 
B------------------------------------------------------------------------------ 
G------7br------2-b-r--------------8br------3--3b-----7br------------------8br- 
D------5---------------------------6--------1--1------5--------5v-----5v---6--- 
A--0-0-5----0-0---------0-0--0-0---6----0-0-1--1--0-0-5----0-0----0-0------6--- 
D--0-0-5----0-0---------0-0--0-0---6----0-0-1--1--0-0-5----0-0----0-0------6--- 
 
e-------------------------------- 
B-------------------------------- 
G------3--3b-----7br------2--2b-- 
D------1--1------5--------0--0--- 
A--0-0-1--1--0-0-5----0-0-0--0--- 
D--0-0-1--1--0-0-5----0-0-0--0--- 
 
e-----------------------|-------------|------------------------|-------------- 
B-----------------------|-------------|------------------------|-------------- 
G-----------------------|-------------|--11--12--14--14/15-14--|--11--12--11-- 
D--4--5----7--7-8-7-----|--4-5-4-2-0--|--x---x---x---x--x--x---|--x---x---x--- 
A--0--0--0-0--0-0-0--0--|--0-0-0-0-0--|--9---10--12--12/13-12--|--9---10--9--- 
D--0--0--0-0--0-0-0--0--|--0-0-0-0-0--|--x---x---x---x--x--x---|--x---x---x--- 
 
e--------------- 
B--------------- 
G--11-11-11-11-- 
D--x--x--x--x--- 
A--9--9--9--9--- 
D--x--x--x--x--- 
 
Key 
b = Bend 
r = Release bend 
h = Hammer 
p = Pull off 
/ = Slide  
v = Vibrato