Song- Inside Us All 
Album- Human Clay 
Written By- Creed 
Transcribed By- David Sobka Jr. & Waldon Reed Jr. 
Tuning- DADGBe 
 
Intro / Verse 
e------------------------0-----------------------------0-------------------- 
B--------------------------0---0-----------------0-------0---0-------------- 
G----------------0-----------5-----------------0-----------0---------------- 
D----4-----5-------5---------------7-----9-----------------------4-----5---- 
A------2-----2-------2---------------5-----5-------5---------------0-----0-- 
D--2-----2-----2-------2---------5-----5-----5-------5---------0-----0-----0 
 
 
e----------------------------------------------------------- 
B----------------------------------------------------------- 
G-----------------------------------/12-----11-----9h11p9/-- 
D--7-----5-----4h5-p4---4-----5---------0------0------------ 
A----0-----0--------------0-----0--------------------------- 
D------0-----0------0-------0-----0-------0------0---------- 
 
 
Chorus 
    Strum   |2nd & 3rd Time |Palm Mute|   Strum   |Palm Mute|   Strum      
e-----------|---3---------|----------|-----------|---------|----------- 
B-----------|------3------|----------|-----------|---------|-----3----- 
G-----5-----|---------5---|----------|-----7-----|---------|-----2----- 
D-----5-----|-------------|----------|-----5-----|---------|-----0----- 
A-----3-----|-------------|---0-0--0-|-----5-----|--0-0--0-|-----0----- 
D-----------|-------------|---0-0--0-|-----5-----|--0-0--0-|-----0----- 
 
                        |1st time played| 
                        |at approx. 2:59| 
                        |   Repeat      |  
e------------|          |---------------| 
B------------|          |-------12-15---| 
G--0-4--0-5--|          |----11---------| 
D--0-4--0-5--|          |---------------| 
A--0-2--0-3--|          |---------------| 
D------------|          |---------------| 
 
 
1st time played at approx. 2:59 
    Strum   | Palm Mute |   Strum   |          |   Strum   |          | 
e-----------|-----------|-----------|----------|-----------|----------| 
B-----------|-----------|-----------|----------|-----3-----|----------| 
G-----5-----|-----------|-----7-----|----------|-----2-----|----------| 
D-----5-----|-----------|-----5-----|--0-3-3-0-|-----0-----|--0-3-3-0-| 
A-----3-----|--0-0--0---|-----5-----|--0-3-3-0-|-----0-----|--0-3-3-0-| 
D-----------|--0-0--0---|-----5-----|--0-3-3-0-|-----0-----|--0-3-3-0-| 
 
 
 
 
 
 
   Strum 
e-----------| 
B-----3-----| 
G-----2-----| 
D-----0-----| 
A-----0-----| 
D-----0-----|