Song- Are You Ready? 
Album- Human Clay 
Written By- Creed 
Transcribed By- Waldon Reed Jr. & David Sobka Jr. 
Tuning- DADADD 
  
Intro. 
d---------------------------------------------------------------------- 
D---------------------------------------------------------------------- 
A-------------------------------------------------0-------------------- 
D---------------------------------------------------0------------------ 
A--3-5---3-5-----3-5---5br--5-5-3-5---3-5---5-0-------0-1/3\--3-5---3-- 
D--0-0-0-0-0-0-0-0-0-0-0----0-0-0-0-0-0-0-0-0---1-------------0-0-0-0-- 
 
Verse 
d------------------------------------------------------ 
D------------------------------------------------------ 
A------------------------------------------------------ 
D----------------------------------------1--------3-3-- 
A----5-----3-5---5br--5-5-3-5---3-5---5--1--(0-0)-1-3-- 
D--0-0-0-0-0-0-0-0----0-0-0-0-0-0-0-0-0--1--(0-0)---3-- 
 
Verse 
d------------------------------------------------------------ 
D------------------------------------------------------------ 
A------------------------------------------------------------ 
D----------------------------------------------1--------3-3-- 
A--3-5---3-5-----3-5---5br--5-5-3-5---3-5---5--1--(0-0)-1-3-- 
D--0-0-0-0-0-0-0-0-0-0-0----0-0-0-0-0-0-0-0-0--1--(0-0)---3-- 
 
Chorus 
      Strum     | 
d----0-----0----|-----------------------------------0--0-0--------- 
D----3-----3----|-----------------------------------0--0-0--------- 
A----0-----0----|-----------------------------------0--0-0--------- 
D----x-----x----|--5--0--5/7-7-----0-----0-4p2-0------------4p2-0-- 
A----3-----2----|--5--0--------7/9---2h4--------------------------- 
D---------------|--5--0--------------------------0----------------- 
 
Bridge 
d------------------------------------------------------------- 
D------------------------------------------------------------- 
A--0---12-10-9-0--------0-0--------0-0----------------9------- 
D--0-0-0--0--0-0-9-10-9-0-0--------0-0------9----9-10---10-9-- 
A---------------------------9-10-9-----9-10---10-------------- 
D------------------------------------------------------------- 
 
Mark also so plays it this way a few time. 
d-------------------------------------------------------- 
D-------------------------------------------------------- 
A--0---12-10-9-0--------0-0--------0-0----------------9-- 
D--0-0-0--0--0-0-9-10-9-0-0--------0-0------9----9-10---- 
A---------------------------9-10-9-----9-10---10--------- 
D-------------------------------------------------------- 
 
"Life has just begun" 
d------------------- 
D------------------- 
A--5--3--9--7--10--- 
D--x--x--x--x--x---- 
A--5--3--9--7--10--- 
D------------------- 
 
Key 
b = Bend 
r = Release bend 
h = Hammer 
p = Pull off 
/ = Slide 
()= Palm Mute