BLACK SABBATH: THE WIZARD
==================================
by [email protected]
=0D
  KEY: P  PULL OF
       H  HAMMER ON
       T  TREMLO	=

       B  BEND =

=0D

  INTRO  :20
  e-----------------------------------------|
  B------------5--5-------------------------|
  G--2--5--2---5--5--------0----------------|
  D--2--5--2---5--5---0H2-----2P0-----------|
  A--0--3--0---3--3----------------3--0-----|
  E--------------------------------------3--|
=0D
  INTRO SOLO  :42
  e------------------------------------------|
  B------------------------------------------|
  G----------------------------------0--0H2--|
  D------------------------------0H2---------|
  A--3H5--3H5P3H5--3H5--3H5P3H5--------------|
  E------------------------------------------|
=0D
  e------------------------------------------|
  B---------------1---------------------3--5-|
  G--2P0-----0H2----2--2P0----0H2--7B9-------|
  D-------2-----------------2----------------|
  A------------------------------------------|
  E------------------------------------------|
=0D
  e-----------------------------------------------------|
  B-----------------------------------------------------|
  G--7B9--7P5--7P5----------------------5---------------|
  D-----------------7--5H7------5--5H7-----7P5----5H7---|
  A-------------------------5H7-----------------7-------|
  E-----------------------------------------------------|
=0D
  STARTS AT 1:07
  e--5--5---6--5---|
  B--5--5---6--5---|
  G--6--6---7--6---|
  D--7--7---8--7---|
  A--7--7---8--7---|
  E--5--5---6--5---|
=0D

  FILL 1  1:07
  e-------|
  B-------|
  G-------|
  D--5T---|
  A-------|
  E-------|
=0D
  FILL 2  1:20
  e----------|
  B----------|
  G----------|
  D--7P5-----|
  A-------7--|
  E----------|
=0D

  STARTS AT 1:36
  e-----------------|
  B-----------------|
  G-----------------|
  D--10--9---7--7---|
  A--10--9---7--7---|
  E--8---7---5--5---|

Articles liés :

Pin It on Pinterest

Spelling error report

The following text will be sent to our editors: