Supernaut

                              Black Sabbath

This song is surprisingly easy; as long as you're a rhythm 
guitarist.... unfortunately for you lead guitarists, that 
solo is beyond me ;-)
BTW, I havn't got one to try this with, but I think that first 
riff may be played with a wah pedal, a la Electric Funeral.

Riff A
e|---------------------------------------------------------------|
B|---------------------------------------------------------------|
G|-----------------------------------------------p-p--------p-p--|
D|----------------------p-p------------------5--5-3-0--5-5-5-3-0-|
A|-5--5-5-0-3-5-5--5-5-5-3-0-3~-5--5-5-0-3-5---------------------|
E|---------------------------------------------------------------|

Riff B
e|--------------------------|
B|--------------------------|
G|--------------------------|
D|-7\-------5--5-5---5--5-7-|
A|-5\-------3--3-3-0-3--3-5-|
E|----xxxxx-----------------|

Song Structure:
                Riff A x 2
                Riff B x 8
                Riff A x 2
                Riff B x 8
                Riff A x 8 (solo)
                Percussion bit.....find a good drummer ;)
                Riff B x B
                Riff A fade to end.


-- 
Matt Javes

        [email protected]

Articles liés :

Pin It on Pinterest

Spelling error report

The following text will be sent to our editors: