-------------------------------------------------------------------------------
		     MAYBE YOU ARE - Asaf Avidan And The Mojos
-------------------------------------------------------------------------------
Tabbed by: Chai Ozeri
Email: [email protected]

Tuning: standard (no capo).

Hi, this is my first tab, hope you'll enjoy.

INTRO:

   F
E-------------1---------------1---------------1---------------1---|
B-----1-----1---------1-----1---------1-----1---------1-----1-----|
G---------2---------------2---------------2---------------2-------|
D-3---------------3---------------3---------------3---------------|
A-----------------------------------------------------------------|
E-----------------------------------------------------------------|

E-------------1---------------1---------------1-----------1---1---|
B-----1-----1---------1-----1---------1-----1---------1-----------|
G---------2---------------2---------------2---------------2-------|
D-3---------------3---------------3---------------3---------------|
A-----------------------------------------------------------------|
E-----------------------------------------------------------------|

I used the intro riff over the whole song. It's not the actual riff used but it's pretty 
and sounds good. The actual riff is changing frequently and was hard for me to pick.

VERSE 1:

   F                              Dm
E-------------1---------------1---------------1---------------1---|
B-----1-----1---------1-----1---------3-----3---------3-----3-----|
G---------2---------------2---------------2---------------2-------|
D-3---------------3---------------0---------------0---------------|
A-----------------------------------------------------------------|
E-----------------------------------------------------------------|
      They met when he was in a   hospital he whispered I ain't


   Bb                             F
E-------------1---------------1---------------1---------------1---|
B-----3-----3---------3-----3---------1-----1---------1-----1-----|
G---------3---------------3---------------2---------------2-------|
D-3---------------3---------------3---------------3---------------|
A-----------------------------------------------------------------|
E-----------------------------------------------------------------|
  got no heart into the           room


Continue this riff until the end of the verse:

F                               Dm
She said "I'll make you smile again" and made an airplane
    Bb                            F
out of some pretty words put in a spoon
                          Dm
he said "I'll never see again...
                           Bb                    F
My eyes are sorta twisted inwards, deep into my throat"
                                 Dm
She said "don't worry babe, I'll open up your jam,
          Bb                      F                  Dm
I'll open up my pretty self" and laid down on his ro-oad

Bb F

CHORUS:

She said how do you

   Bb                              F
E-------------1---------------1---------------1---------------1---|
B-----3-----3---------3-----3---------1-----1---------1-----1-----|
G---------3---------------3---------------2---------------2-------|
D-3---------------3---------------3---------------3---------------|
A-----------------------------------------------------------------|
E-----------------------------------------------------------------|
   know,              maybe you are,          she said how do you

   Bb                             F
E-------------1---------------1---------------1---------------1---|
B-----3-----3---------3-----3---------1-----1---------1-----1-----|
G---------3---------------3---------------2---------------2-------|
D-3---------------3---------------3---------------3---------------|
A-----------------------------------------------------------------|
E-----------------------------------------------------------------|
   Kno-ow,            maybe you are,          she said how do you

   Bb                             F
E-------------1---------------1---------------1---------------1---|
B-----3-----3---------3-----3---------1-----1---------1-----1-----|
G---------3---------------3---------------2---------------2-------|
D-3---------------3---------------3---------------3---------------|
A-----------------------------------------------------------------|
E-----------------------------------------------------------------|
   Kno-ow,              maybe you a-a-a-a…

   Dm                             Bb
E-------------1---------------1---------------1---------------1---|
B-----3-----3---------3-----3---------3-----3---------3-----3-----|
G---------2---------------2---------------3---------------3-------|
D-0---------------0---------------3---------------3---------------|
A-----------------------------------------------------------------|
E-----------------------------------------------------------------|
   are,                 maybe you a-a-a-a…

   F                              Dm
E-------------1---------------1---------------1---------------1---|
B-----1-----1---------1-----1---------3-----3---------3-----3-----|
G---------2---------------2---------------2---------------2-------|
D-3---------------3---------------0---------------0---------------|
A-----------------------------------------------------------------|
E-----------------------------------------------------------------|
   are,                 maybe you are,                  maybe you

   Bb                             F
E-------------1---------------1---------------1---------------1---|
B-----3-----3---------3-----3---------1-----1---------1-----1-----|
G---------3---------------3---------------2---------------2-------|
D-3---------------3---------------3---------------3---------------|
A-----------------------------------------------------------------|
E-----------------------------------------------------------------|
   are,                 maybe you are.

E-------------1---------------1---|
B-----1-----1---------1-----1-----|
G---------2---------------2-------|
D-3---------------3---------------|
A---------------------------------|
E---------------------------------|

VERSE 2:

F                            Dm
She peeled his skin away, so every day he'd cry
             Bb                           F
And in those tears he'd lie to find some peace
                                  Dm
She broke from all his words, but she was made of mercury,
      Bb                            F
She'd come together later piece by piece
                          Dm
And it became a game they played, under the blankets
       Bb                                       F
In the bed, pretending she was small and he was big
                               Dm
She became so small, he could lift her, body and heart and all,
    Bb                F                   Dm   Bb
He held her up naked, she was just his fi-ig
       F
just his fig.


[CHORUS]

END:
          Dm             Bb
Maybe you are, maybe you are, maybe you

   F [same as intro, only slower]
E---------------------------------------------1-------------------|
B-----------------------------1-----------1-----------------------|
G-------------------------------------2---------------------------|
D---------------------3-------------------------------3-----------|
A-----------------------------------------------------------------|
E-----------------------------------------------------------------|
   are.

That's it, enjoy!
great song, great band ;)

Articles liés :

Pin It on Pinterest

Spelling error report

The following text will be sent to our editors: