AC/DC - The Honey Roll
================================
tabbed by prof.dr.sc.Deda Prasec aka Sasha aka Angus The (Al)Mightyintro 

riff:

e:----------------------------------------------------------------------------|
B:----------------------------------------------------------------------------|
G:----------------------------------------------------------------------------|
D:----------------------------------------------------------------------------|
A:------7-----7---5s4--2------7------7--------7-------7------7----------------|
E:--6h7---6h7-----3s2--0---------6h7-----4h5-----6h7----4h5--5-----------------

repeat a few times then:

e:----------------------------------------------------------------------------|
B:----------------------------------------------------------------------------|
G:----------------------------------------------------------------------------|
D:----------------------------------------------------------------------------|
A:------7-----7---5s4--2------7------7--------7-------7-------5--4--2---------|
E:--6h7---6h7-----3s2--0---------6h7-----4h5-----6h7----4h5---3--2--0---------

verse:

e:----------------------------------------------------------------------------|
B:----------------------------------------------------------------------------|
G:----------------------------------------------------------------------------|x2
D:-------2--------------2-----2-----------------------------------------------|
A:--222--0-5-2---222--5-0-3-2-0-----------------------------------------------|
E:--000----3-0---000--3---5-0--------------------------------------------------

e:----------------------------------------------------------------------------|
B:----------------------------------------------------------------------------|
G:----------------------------------------------------------------------------|
D:----------2--------------2-----2--------------------------------------------|
A:--222----20-5-2---222--5-0-3-2-0--------------------------------------------|
E:--000----0--3-0---000--3---5-0----------------------------------------------              

bridge:play around with A G and D...something like:              

xe:--3-3------(3)-3-3-3-----------------------------------------------------------|
B:--3-2------(2)-3-3-2-----------------------------------------------------------|
G:--0-3-2----(3)-0-0-3--2--------------------------------------------------------|
D:--0-0-2----(0)-0-0-0--2--------------------------------------------------------|
A:--0---0--------0-0----0--------------------------------------------------------|
E:--3------------3-3-------------------------------------------------------------

x() = hit the notes and silence them right after that, they're not supposed to ring
e:---3-3---------3-3-----------------------------------------------|
B:---3-3---------3-3-----------------------------------------------|
G:-2-0-0-2-------0-0--2--------------------------------------------|
D:-2-0-0-2-------0-0--2--------------------------------------------|
A:-0-0-0-0-------0-0--0--------------------------------------------|
E:---3-3---------3-3-----------------------------------------------

chorus is a combination of intro and verse riffslater (after the solo) on bridge repeats but there's also:

e:--------------------------------------------------------------------------------|
B:--------------------------------------------------------------------------------|
G:---3--------------------------------3-3-----------------------------------------|
D:---3--3--5--------------------------3-3--3--5-----------------------------------|
A:------3--3-------------------------------3--3-----------------------------------|
E:--------------------------------------------------------------------------------               

"so don't you hide..."and something like this:(mixed with some lead work....)

e:----------------------------------------------------------------|
B:---5b6---3------------------------------------------------------|
G:---5b6---3-----------------5-3-0---5-3-0------------------------|
D:-------------3h5--5-5------5-3-0---5-3-0------------------------|
A:-------------3h5--5-5-------------------------------------------|
E:----------------------------------------------------------------

in the end,during the solo, one guitar plays something lke:

e:--------------------------------------------------------------|
B:--------------------------------------------------------------|
G:----7-7-7-7-6-6-6-6-------------------------------------------|
D:----7-7-7-7-7-7-7-7-------------------------------------------|
A:--------------------------------------------------------------|
E:--------------------------------------------------------------

and the other just strumms D and A:

e:---3--      -----     ---------------------------------------------------|
B:---2--      -----     ---------------------------------------------------|
G:---3-- x16  --2-- x16 ---------------------------------------------------|
D:---0--      --2--     ---------------------------------------------------|
A:------      --0--     ---------------------------------------------------|
E:------      -----     --------------------------------------------------- 

This is my first tab so there might be some mistakes, still hope it's better than a version I got a hold of, which was absolutely horrible.Didn't tab the solos, but since that's Angus it mkes no sense to tab it; can't tab pure energy, now can you? :)Mail me at: leeroykincaid@hi.hinet.hr if you notice any mistakes.