From GUNGBG@aol.com Tue Nov  3 16:15:25 1998

Francine
ZZ Top

intro
E-------------------|
B-10b11-10------6-5-|
G-10b11-10------5-5-|
D-----------5h7---5-| x2
A-------------------|
E-------------------|

C
Got a girl, her name's Francine,
C
finest thing you ever seen.
G                                 C
And I love her, she's all that I want.
G                                 C
And I need her, she's all that I need.

C
Well, Francine, oh Francis, why
C
do you love me and make me cry?
G                                 C
How I love her, she's all that I want.
G                                 C
How I need her, she's all that I need.

F
If I ever caught her with Stevie P
F                           C
I'd throw her back in the Penitentiary, now.
F
And if I caught her with my mother's son
G
I'll call her daddy and get my gun.

repeat intro riff x2

guitar solo - F C F D
                  E----------------------------
                  B-8p7---10p7----8p7---10p7---
                  G-----7------7------7------7-
                  D-----7------7------7------7-
                  A----------------------------
                  E----------------------------

C
My Fancine just turned thirteen,
C
she's my angelic teenage queen.
G                                 C
And I love her, she's all that I want.
G                                 C
And I need her, she's all that I need.
G                                 C
And I love her, she's all that I want.
G                                 C
And I need her, she's all that I need.
G                                 C
And I love her, she's all that I want.
G                                 C
And I need her, she's all that I need.