GUILTY OF LOVE    BY    Whitesnake

E-----------------------------------5--------------
B-------------5---------5---------5---7-5-7-5------
G------6--6H7---6---6H7---6---6H7-------------7----
D--------------------------------------------------
A--------------------------------------------------
e--------------------------------------------------


E-----------------------------
B-----------------------------
G-----------------------------
D------9----7-----------------
A------7----5----5----7-------
e----------------7----9-------

I BELIEVE MY.........

E------9--7--9----9--7--9-----
B------9--7--9----9--7--9-----
G------9--7--9----9--7--9-----
D------9--7--9----9--7--9-----
A-----------------------------
e-----------------------------

SOLO

E---8-8-8-8-8-8-8-10-10-10-10-10-10-10-12-12-12-12-12-12-12-14-14-15P14-15P14--
B------------------------------------------------------------------------------
G------------------------------------------------------------------------------
D------------------------------------------------------------------------------
A------------------------------------------------------------------------------
e------------------------------------------------------------------------------

E---16-----15-----14-----13-12------
B------14-----13-----12-------------
G-----------------------------------
D-----------------------------------
A-----------------------------------
e-----------------------------------

THATS IT!!!!!       WE WISH YOU WELL.....

Articles liés :

Pin It on Pinterest

Spelling error report

The following text will be sent to our editors: