john

Save Me
Turin Brakes
The Optimist LP



Bm  A  G


Bm                    A                    G
-------0------------|----------0-----------|-----------------5--|
---3--------3----3--|----3---------3-------|----3-------3-------|
-6---6----6----6---6|-------6----6---6-----|--6---6---6----6----|
--------------------|----------------------|--------------------|
--------------------|----------------------|--------------------|
--------------------|----------------------|--------------------|



Solo
----


---7--7----------------10--------10-|--112--12--12----------------------------------|
--7------10--7--10-12------12-12----|---------------10------------------------------|
-7----------------------------------|------------------11\7-----7----9--7-----------|
------------------------------------|------------------------9----9--------9-7------|
------------------------------------|------------------------------------------9-7--|
------------------------------------|-----------------------------------------------|



--------------------|---------------|--22h3p0--repeat-|----------10--------7--------10------|
--------------------|-2h3p0--repeat-|-----------------|--7-8--10----7-8-10---10/12-----12---|
--------------------|---------------|-----------------|-------------------------------------|
--------------------|---------------|-----------------|-------------------------------------|
--------7-------7\--|---------------|-----------------|-------------------------------------|
--7--10----10\------|---------------|-----------------|-------------------------------------|



--12b14--12-10------|-----------------------|-------------------|
----------------12--|-repeat-previous-------|-10\7--5h7p5-------|
--------------------|-----bar-a-few-timees--|--------------7-4--|
--------------------|-----------------------|-------------------|
--------------------|-----------------------|-------------------|
--------------------|-----------------------|-------------------|