Artist          : Traffic
Title           : John Barleycorn
Transcribed     : caderosa@tin.it
Comments:       : capo on 5th fret
---
Strings: E,A,D,G,B,E
====================

INTRO:

  (D)             (C)         (Em)         (Am)             
   e  s  e  s  e   s  s  e (s) s  s  e (s)  s  s  s  e  s  e
E--------2-------|------------------------|-----------------
B-----------3----|-------1~----------0~---|-------1\-0------
G-----2--------2-|----0----(0)----0----(0)|-------------2---
D--0-------------|------------------------|----2-----------2
A----------------|-3-----------2----------|-0---------------
E----------------|------------------------|-----------------
>                                                            
(Am)
|  s  s  s  e  s  e  (two times)
E-------------------||
B--------1\-0-------||    
G--------------2----||
D-----2-----------2-||
A--0----------------||
E-------------------||

Every strophe:

  (D)            (Am)             (C)         (Em)         (Am)
   e  s  e  s  e   e  s  e  s  e   s  s  e (s) s  s  e (s)  s  s  s  e  s 
e
E--------2-------|---------------|------------------------|-----------------
B-----------3----|-------1-------|-------1~----------0~---|-------1\-0------
G-----2--------2-|----------2----|----0----(0)----0----(0)|-------------2---
D--0-------------|----2--------2-|------------------------|----2-----------2
A----------------|-0-------------|-3-----------2----------|-0---------------
E----------------|---------------|------------------------|-----------------

(Am)
|  s  s  s  e  s  e  then intro.
E-------------------............|| 
B--------1\-0-------............||     
G--------------2----............|| 
D-----2-----------2-............|| 
A--0----------------............||
E-------------------............||