"Walkaways," Counting Crows
=======================================
Transcribed by Michael A. Mazur (mmazur@wpi.edu)

Intro: Acoustic guitar:
                                                                      
|--3--3--3--3-----3-------------|-----3--3--3--3--3-------------|
|--3--3--3--3-----3-------------|-----3--3--3--3--3-------------|
|--0--0--0--0-----0----------0--|-----2--2--2--2--2----------0--|
|--0--0--0--0-----0-------0-----|--0--0--0-----0--0-------0-----|
|--2--2-----------2--0h2--------|--------------------0h2--------|
|--3--3--------3--3-------------|-------------------------------|
                                                                      

                                                                      
|-----3--3--3--3--3--3-------------|-----3--3--3--3--3--3--3--3--|
|-----3--3--3--3--3--3-------------|-----1--1--1--1--1--1--1--1--|
|-----2--2--2--2--2--2----------0--|-----0--0--0--0--0--0--0--0--|
|-----2--2--------2--2-------0-----|-----2--------2--2--2--2--2--|
|--0--0--0--------0--0--0h2--------|--3--3--------3--3--3--3--3--|
|----------------------------------|-----------------------------|
                                                                      

Verse:
G                   Dsus4      Am7add4
      "I gotta rush away," she said
           C
"I been to Boston before,
and anyways
this change I been feeling
doesn't make the rain fall"

No big differences these days
just the same old walkaways
and someday
I'm gonna stay
but not today

Am7add4: x02233
C      : x32013