SANTERIA by Sublime
Transcribed by Jeremy Roswell ([email protected])

Intro:

        E                       Ab
e--------------------    e----------------
b--------------------    b---4------------
g-----9-------9-9----    g-----5----------
d---9---9---------9--    d-------6--------
a-7-------7-7-------7    a-----------6-2-4
e--------------------    e-4-------4------

        Dbm                     B
e--------------------    e---2------------
b-----------5--------    b-----4----------
g-----6-------6------    g-------4--------
d---6---6-------6----    d----------------
a-4-------4----------    a-2-------2------
e--------------------    e----------------


E, Ab, Dbm, B

Verse 1:
             E                        Ab
I don't practice santeria I ain't got no crystal ball

     Dbm                            B
I had a million dollars but I'd, I'd spend it all

     E                                 Ab
If I could find that Heina and that Sancho she's found

            Dbm                      B
Well I'd pop a cap in Sancho and I'd   slap her down

Chorus:

A        B             E   Dbm
All I really wanna know my baby

A        B            E   Dbm      A
All I really wanna say I can't define

       B            E    Dbm
It's love that I need

A          B
But my soul will have to

Verse 2:

    E
Wait 'till I get back, find a Heina of my own
Daddy's gonna love one and all
I feel the break, feel the break, feel the break
And I gotta live it up
Oh yeah, uh huh, well I swear that I

Chorus:

All I really wanna know my baby
All I really wanna say I can't define
That love will make it go
My soul will have to...

Solo

Chorus

All I really wanna say my baby
All I really wanna say is I've got mine
And I'll make it yes I'm comin' up
Tell Sanchito that if

Verse 3:

He knows what is good for him he best go run and hide
Daddy's got a new 45
And I won't think twice to stick that barrel straight down Sancho's
throat
Believe me when I say that I've got something for his punk ass

Chorus

Well I really wanna know my baby
What I really wanna say is there's just one way back
And I'll make it
yeah my soul will have to wait

Chorus Riff:

  A       B       E       Dbm
e-5-------7-----------------------
b---5-------7-----9---------------
g-----6-------8-----9---------6---
d-------7-------9-------9-6-----6-
a---------------------7-----4-----
e---------------------------------


From: Henry Nicholson 

SUBLIME's
         Santeria-

As close as I could come to it at least. Oh, well, I think I
did a damn good job on it, but you don't have to. Toy with it
some and try to make it sound better. The intro was all I got,
but it was worth it anyway. Have fun...

-------------------------------
-------------------------------
---9-------9---------5-----5---
--9--9----9-9----------6---6-6-
7-----7-7----7------6---6--6-6-
-------------(7\4)4-----(4)4---

------------------------------------|
-------5---5-4(3)----------7--------|
-----------6-4(3)6/7(\6)--6--6------|
(6)---6--6-------4/5(\4)4------4----|
66p44-----4-------------------------|
------------------------------------|

..let the last note ring until the verse breaks in with
abunch of chords and such.


Ok here is the long awaited solo of Santeria.  It is very close to the
actual solo but I know there are a few mistakes.  The main problem I
had

was trying to figure out the downward and upward scales that Bradley
plays
really fast.  I wrote them out as best as I could but I know they're
missing
several notes.  I have found that just sliding down the strings sounds
good
but I don't think this is how it's really played.


e-------------------------------------------------------------------------

b-------------------------------------------------------------------------

g-------------------9--b11--11--9--8--8-6-b8----6--6-6-4------------------

d-------------9-h11--------------------------------------6-4-2------------

a--7----9-h11--------------------------------------------------4-2--------

e-------------------------------------------------------------------------



e-----------------7--9-7-----------------------------9-7----9-7-----------

b------------------------9-7----------------------b9-----b9-----9-7-------

g------------4-6-------------9-6---------5---5----------------------------

d------2-4-6---------------------9-6---6---6------------------------------

a--2-4-------------------------------9------------------------------------

e-------------------------------------------------------------------------

After this is just leads back into the chorus.


From [email protected] Thu May 15 17:00:38 1997
Date: Thu, 01 May 97 19:59:48 -0500
From: Henry Nicholson 
To: [email protected]
Subject: more

Not too long ago I sent in an entry giving the
tablature for Sublime's SANTERIA. It included
the opening and the chorus. In this entry, I
will make one very slight correction to the
chorus, but as a bonus, I am giving you the
verse chord progession, and that solo we've all
grown to know and love ALL FOR THE LOW, LOW
PRICE OF (three monthly installments of)
$49.95!!!!!!:

Sublime's   SANTERIA!!!!

Chorus corrections:
5-------7-------------------5p0----|
--5-------7-----9---7p4---------55-|
----6-------8-----9----5-6p4-------|
------7-------9--------------------|
-----------------------------------|
-----------------------------------|
..played three times, then repeat
the first eight notes once.

Verse chord Progession (palm muted)

   E A D G B E
   X_X_______X              X_X________
Am |_|_|_|_1_| 1st fret  Ab |_|_1_1_1_|
   |_|_2_3_|_| 2            |_|_|_|_|_|
   |_|_|_|_|_| 3            |_|_|_|_|_|
   |_|_|_|_|_| 4            |_|_|_|_|_4
   |_|_|_|_|_| 5            |_|_|_|_|_|


   X_X_X______              X_X________
D  |_|_|_|_|_|          F#9 |_|_|_|_|_|
   |_|_|_2_|_1              |_|_|_|_|_|
   |_|_|_|_3_|              |_|_|_1_|_|
   |_|_|_|_|_|              |_|_2_|_|_3
   |_|_|_|_|_|              |_|_|_|_4_|

Just so no one is confused about chord reading,
I'll explain it all:

-The strings are as marked above the A-minor chord.

-The "X's" above the strings signify to muffle that string.

-The frets (also as marked above A-minor) start at the
first (at the top) and go to five (at the bottom).

-The numbers on each fretted string are to tell what
fingers to use:
1-index finger
2-middle finger
3-ring finger
4-pinky
So the F-sharp 9 Chord in stantard tab form would be:
|--4--|
|--5--|
|--3--|
|--4--|
|--X--|
|--X--|

..and finally, the solo:
(right after he says "My soul will have to...")


-----------------------------------
-----------------------------------
-------------9--11^--11-9-8-8p6-8'-
---------9h11----------------------
-7---7/11--------------------------
-----------------------------------

                         ~~~~~~~
-----------------------------------------------0-
-------------------------------------------------
--6-6p4-------------------------------------456--
-------6/9-------------------------------456-----
-----------10^-7-9p7------------------456--------
--------------------9/12-9---(\4)--456-----------

                              ~~~~~~
--7^-9p7----------------------------
--------9-787\5---------------------
---------------6-898\6----5---------
----------------------8-6---6-11----
------------------------------------
------------------------------------


-----9---------9------------------------------|
------10--------10--------(7)-----------------|
11^-----9-11^-----9-11^-v-----11h12-11\9-9-67-|
----------------------------------------------|
----------------------------------------------|
----------------------------------------------|
                       ...oooooooooohhhhhh...
[Chorus continues]

Symbols-

SLIDING  / is for sliding up(5/7) and \ is to slide
         down (7\5)
BENDS/RELEASE   ' is a quarter step bend (1/2 fret)
                ^ is a half step bend (1 fret)
                v is to release from a bend
HAMMERON/PULLOFF   h is to hammer on(5h7) and
                   p is to pull off(7p5)

the solo's a little hard to get down at first, but
it fet's easier after a while.

Articles liés :

Pin It on Pinterest

Spelling error report

The following text will be sent to our editors: