Rush: Test for Echo
From the album (Atlantic Records)
Copyright 1996 Core Music Publishing
Music by Lee and Lifeson
Lyrics by Peart and Dubois

letostak@ix.netcom.com (Judy Letostak)
The Music Shop BBS (619)423-4970
1:202/1109 (FidoNet)
http://www.netcom.com/~letostak/musicshp.html

Please listen to the recording for the exact phrasing
of the song.  This is in no way 100% accurate or complete.
Remember, these tabs are free, if you want an accurate
and complete tab, go to your local music store and shell out
$25.00 for a book...Don't complain to the person posting the
tabs...If we were that good, we'd be working for the guitar
magazines...

Tune down 1 step

Rhy Fig 1

----------0----------------0--------------0--------------
-------------0----------------0--------------0-----------
-------9----------------5--------------7----------0------
----9----------------5--------------7--------------------
-7----------------3--------------5-----------------------
-0-------------------------------------------------------


----------0--------|
-------------0-----|
-------0--------0--|End Fig 1
----2--------------|
-0-------h1--------|
-------------------|

Chorus w/Fig 1


Riff A
||-------------------------------------------------------
||-------------------------------------------------------
||o------------------------------------------------------
||o-----2p0-----0------0--2p0-----0------0--2p0-----0----
||-----------------/5----------------/5------------------
||---0-------4-----------------4-----------------4-------


------------||
------------||
-----------o||
-----------o||
--4p2-------||
-------3----||


Verse
Rhy Fig 2
---------------------------------------------------------
---------------------------------------------------------
-----------------7---------------------------------------
----9---7---9----7--------9----7h9---7---------9---7-9--7
----7---7---7-------------7----7-----7---------7---7-7-7-
-0-------------------------------------------------------


---------------------------------------------------------
---------------------------------------------------------
--------9p7--7--------------------------7----------------
--7--7--9p7-----7-----------9----7h9----7---9---7h9--7---
----------------------------7----7----------7---7----7---
-----------------------0---------------------------------


----------------0----------------------------------------
---------------------------------------------------------
------------7---------------7h9-----7--------------------
-9----7--9-------------9p7----------7h9-----9----9-------
-7------------------------------------------7----7-------
---------------------------------------------------------


----------------------------------------------------0----
---------------------------------------------------------
--------------7------------------------------------------
--7h9---------7----------9---7h9---7----9---7---9--------
--7------7---------------7---7-----7----7----------------
---------------------------------------------------------


---------------------------------------------------------
---------------------------------------------------------
-----7---7----------------------------7----7-------------
--9----7h9-----9--7------9---7---9---------9----7h9---7--
-------------------------7---7---7--------------7-----7--
---------------------------------------------------------

                       let ring------------------
------------------------0---------------0------0---------
------------------------0---------------0------0---------
---9--------7---9---7------------------------------------
---9--------7---9-----------------9----------------------
----------------------------------7----------------------
---------------------------------------------------------

Pre-chorus w/riff a 4x



---------------------------------------------------------
---------------------------------------------------------
---------------7---------------------------------7-------
-9--9---7--9---7------9---7h9--7------9---7--9---7-------
-7--7---7--7----------7---7----7------7---7--7-----------
-----------------------------------8---------------------


---------------------------------------------------------
---------------------------------------------------------
---------------------------------------------------------
--9---7h9----7-------------------------------------------
--7---7------7-------------------------------------------
---------------------------------------------------------


2nd verse Rhy Fig 2
Chorus Fig 1



---------------------------------------------------------
---------------------------------------------------------
---------------------------------------------------------
-------------5b------------5-------------5---------------
-7--7--7--7------7--5--7~-------7--5--7-----------------5
--------------------------------------------7--7--7--7---


---------------------------------------------------------
---------------------------------------------------------
---------------------------------------------------------
-----------5b------------5-------------5-----------------
---------------7--5--7~-------7--5--7-----7/9--9--9--7h9-
-7---8--8------------------------------------------------


---------------------------------------------------------
---------------------------------------------------------
---------------------------------------------------------
-------------------------5-------------5-----------------
--9\7---7--7---7--5--7~-------7--5--7-----------------5--
------------------------------------------7--7--7--7----7


---------------------------------------------------------
---------------------------------------------------------
---------------------------------------------------------
-------5------------5-----------------5------------------
----------7--5--7~-------7---5--5--7-----7/9--9-9-9--9-9-9\
-8--8----------------------------------------------------


---------------------------------------------------------
---------------------------------------------------------
--------------------0----------------------0-------------
-----------------2---------------12h14-----2-----12~-----
--2-----------3------------2---------------3-------------
--0------------------------0-----------------------------


Lead

---------------------------------------------------------
-------------------------12h15~--------------------------
---------------------------------------------12h16~\-----
---------------------------------------12h14-------------
-------10-12-12/14\-----------------14-------------------
-10/12---------------------------------------------------


------0--------------------------------------------------
------------------------15--12------12-------------------
-9p7-/9----------------------------------14-------12-12--
----------7--5--7~--7~----------14----------12h14--------
---------------------------------------------------------
---------------------------------------------------------


----------------------7--7--7---7--7---7--7--7-----------
-------------12-------7--8--7---8--8---7--8--7-----------
----12-14bf-----14---------------------------------------
-14------------------------------------------------------
---------------------------------------------------------
-------------------------------------------------x\------

  7bars
-17--17-17-17-17--17-17-17-17-17------/20~w/bar----------
-17--17-17-17-17--17-17-17-17-17------/20~---------------
---------------------------------------------------------
---------------------------------------------------------
---------------------------------------------------------
---------------------------------------------------------


----------------------0----------------------------------
----------------------0----------------------------------
---------------------------------------------------------
-------4----2----4---------4---2----4---2-------4---2-4--
-2-----2----2----2---------2---2----2---2-------2---2-2--
---------------------------------------------3-----------


-0-------------------------------------------------------
-0-------------------------------------------------------
---------------------------------------------------------
------4---2---4---2--------------------------------------
------2---2---2---2--------------------------------------
---------------------------------------------------------

Rhy Fig 5  (3x)
2x================    2x==============
----------0-------------------0--------------------------
-------------0-------------------0-----------------------
-------4--------4----------4--------4--------------------
----4-------------------4--------------------------------
-2-------------------------------------------------------
---------------------3-----------------------------------


Pre-Chorus W/Riff A (4x)
Chorus Outro W Fig 1