Rush: Losing It
From the album Signals (Mercury Records)
Copyright 1982 Core Music Publishing
Music by Lee and Lifeson
Lyrics by Peart

Transcribed by: Richard J. Soto
Email: lerxst@zeus.jersey.net

Updated & corrected last on March 12, 1999.

Thanks go out to Xemo ( Xemoxofux@aol.com ) for catching a typo-error; one
note in the riff after the violin solo.  Also, in that same riff, I've
noted finger indicators under the tab staff for what I feel to be fingering
for proper and clean execution.

FINGERS: I=Index M=Middle R=Ring P=Pinky

Definitely an underated Rush song! The chords are buried in the mix during
the electric violin mid-section. I'm working on it.

----------------------------------------------------------------------------|-
----------------------------------------------------------------------------|-
-----4--4---4--4---4---6----------------------------------------------------|-
-4---4--4---4--4---4---6----------------------------------------------------|-
-2---2--2---2--2---2---4----------------------------------------------------|-
----------------------------------------------------------------------------|-
     .      .      .         And she limps across the floor                   

------------------------------------------------|-----------------------------
------------------------------------------------|-----------------------------
--------------------------------8---8--8---8--8-|-----------------------------
--------------------------------8---8--8---8--8-|-----------------------------
--------------------------------6---6--6---6--6-|-----------------------------
------------------------------------------------|-----------------------------
 And closes her bedroom door...     .      .                                  

----------------------------------------------------------------------------|-
----------------------------------------------------------------------------|-
-11\10-8----------11-10\6----------------------------4---4------4--4-4---4/-|-
-----------6/8\1-----------6/8\4----------4------4---4---4--4---4--4-4---4/-|-
--------------------------------------4-4-4--4---2---2-2-2--2-2-2--2-2---2/-|-
----------------------------------2---2-2-2--2------------------------------|-
 Play 4x                          x   x x    x   x     x    x x .  . .        

----------------------------------------------------------------------------|-
----------------------------------------------------------------------------|-
-4---4--4---4--4---4---6----------------------------------------------------|-
-4---4--4---4--4---4---6----------------------------------------------------|-
-2---2--2---2--2---2---4----------------------------------------------------|-
----------------------------------------------------------------------------|-
     .      .      .         And he stares out the kitchen door               

-------------------------------------------------|-----------|----------------
-------------------------------------------------|-----------|----------------
------------------------------------8---8--8---8-|---------6-|----------------
------------------------------------8---8--8---8-|-----8-6---|----------------
------------------------------------6---6--6---6-|-6/8-------|----------------
-------------------------------------------------|-----------|----------------
 Where the sun will rise no more...     .      .                              

------------------------------|------------------------------|------------|---
-------------------------9----|-------------------------9----|------------|---
-8-----6-----5-----5/6-8-8----|-8-----6-----5-----5/6-8-8-8--|------------|---
-8-----6-----6-----5/6-6-6----|-8-----6-----6-----5/6-6-6-6--|------------|---
-6-----4-----6----------------|-6-----4-----6----------------|------------|---
-6-----4-----4----------------|-6-----4-----4----------------|------------|---
 Rhy.1                                                        (Play Rhy.1)    

-------------------------|-----2---------------------------------------|------
-------3-----------------|-----2-------------------4-------------------|------
-5-----4-----5-----0-----|-----4-------------------6-------------------|------
-7-----5-----7-----5-----|-----4-------------------6-------------------|------
-7-----5-----7-----5-----|-----2-------------------4-------------------|------
-5-----3-----5-----3-----|---------------------------------------------|------
                           For you the blind...  Play 4x                      

---------------------|--------------------------------------------------------
---------------------|--------------------------------------------------------
-8---8---8---8---8---|--------------------------------------------------------
-8---8---8---8---8---|--------------------------------------------------------
-6---6---6---6---6---|--------------------------------------------------------
-6---6---6---6---6---|--------------------------------------------------------
     .       .                                                                

------------------------------------------------------------------------------
------------------------------------------------------------------------------
------------------------------------------------------------------------------
------------------------------------------------------------------------------
------------------------------------------------------------------------------
------------------------------------------------------------------------------
 Guitar under electric violin is a work in progress (Section incomplete)      

------------------------------------|------------------|----------------------
------------------------------------|------------------|----------------------
------------------------------------|------------------|----------------------
--------------8-6-------------6-----|------------------|----------------------
----------6-8-----8-------6-9---8---|------------6---8-|----------------------
--------------------9---7---------9-|----------7---9---|----------------------
 Play 4x  I R R I M R   M I R I M R   Play 3x  M I M I                        

--------------------------------------------------------------------|---------
---------------------------------6-----------4-----------6----------|---------
-4---4--4---4--4---4-4-----------6-----------4-----------6----------|---------
-4---4--4---4--4---4-4-----------6-----------4-----------6----------|---------
-2---2--2---2--2---2-2-----------4-----------2-----------4----------|---------
--------------------------------------------------------------------|---------
     .      .      .                                                          

-------2-----------4-----------2-----------4-----|----------------------------
-------2-----------4-----------2-----------4-----|----------------------------
-4-----4-----6-----6-----4-----4-----6-----6-----|----------------------------
-4-----------6-----------4-----------6-----------|----------------------------
-2-----------4-----------2-----------4-----------|----------------------------
-------------------------------------------------|----------------------------
                                                                              

-------7-------------9-----|--------------------------------------------------
-------7-------------9-----|--------------------------------------------------
-8-----8-----10-----10-----|--------------------------------------------------
-9-----9-----11-----11-----|--------------------------------------------------
-9-----------11------------|--------------------------------------------------
-7------------9------------|--------------------------------------------------
 Play 2x, fade while playing 4x                                               

#-----------------------------------------------------------------------------#
#-- File created with Instab - http://www.pconline.com/~smcarey/instab.html --#
#-----------------------------------------------------------------------------#