Rush: Emotion Detector
From the album Power Windows (Mercury Records)
Copyright 1985 Core Music Publishing
Music by Lee and Lifeson
Lyrics by Peart

Comments/corrections to Rich Soto 

Transcribed by: Richard J. Soto
Email: lerxst@zeus.jersey.net

The intro uses volume swells ala volume pedal with some bends
and the tremolo bar.
Previous chordal transcription done by Jimmy Pena ( jimmy@walrus.com )

-------------------|---------------------------|------------14b15vvvvvvvvvv|--
-------------------|------------12b13vvvvvvvvvv|---------------------------|--
-------------------|---------------------------|---------------------------|--
-------------------|---------------------------|---------------------------|--
-------------------|---------------------------|---------------------------|--
-------------------|---------------------------|---------------------------|--
 Keyboards & Drums   Volume Swells(See notes)********************************

-------------------------------|-19b20vvvvvvvvvvvv-18-r17vvvvvvvvvvvvvvv|-----
--------------15---17--vvvv----|----------------------------------------|-----
-12vvvvvvvvvv------------------|----------------------------------------|-----
-------------------------------|----------------------------------------|-----
-------------------------------|----------------------------------------|-----
-------------------------------|----------------------------------------|-----
 ***********************************************************************

----------------------------------------3-3-3-3-3-3-3-|-----------------------
-----------6-6-----6-5---3----------3-3---------------|-----------------------
-------5-5-----5----------------0---------------------|-----------------------
------------------------------------------------------|-----------------------
------------------------------------------------------|-----------------------
------------------------------------------------------|-----------------------
 Muted-xxxxxxxxxxxxxxxxxxxxxxxxxxxxxxxxxxxxxxxx

----------------------------------------------------15-------------------|----
----------------------------------------------13-------15----------------|----
-0----------------7----------------/12-----------------------------------|----
-------------------------------------------------------------------------|----
-------------------------------------------------------------------------|----
-------------------------------------------------------------------------|----
 Let Ring & Sustained                                  AH

-------1-------------------------1---------------------|----------------------
-------------1------3--1-------1----3------------------|----------------------
----3-----3-------3------------------------------------|----------------------
-3--------------3--------------------------------------|----------------------
----------------------------1--------------------------|----------------------
-------------------------------------------------------|----------------------
 Rhy.1

-------1-------------------------1-----------------1---|------------|---------
-------------1------3--1-------1----3----------1-------|------------|---------
----3-----3-------3--------------------------3---------|------------|---------
-3--------------3--------------------------3-----------|------------|---------
----------------------------1------------1-------------|------------|---------
-------------------------------------------------------|------------|---------
 Rhy.2                                                   Play Rhy.1

-------1--------------------1--------------------------|-3----------|---------
-------------1------3--1----1--------------------------|-3----------|---------
----3-----3-------3---------3--------------------------|-3----------|---------
-3--------------3-----------3--------------------------|-5----------|---------
----------------------------1--------------------------|-5----------|---------
-------------------------------------------------------|------------|---------
                                                 When we lift...

-3--------------------------------------------------1--|----------------------
-3----------------------------------------------1-1----|----------------------
-3--------------------------------------------3--------|----------------------
-5------------------------------------------3----------|----------------------
-5----------------------------------------1------------|----------------------
-------------------------------------------------------|----------------------
 spots...

-------1-------------------------1-----------5---3---1-|------------|---------
-------------1------3--1-------1----3------------------|------------|---------
----3-----3-------3----------------------3-5---3---0---|------------|---------
-3--------------3--------------------------------------|------------|---------
----------------------------1--------------------------|------------|---------
-------------------------------------------------------|------------|---------
 Rhy.3                                                   Play Rhy.2

-------1-------------------------1---------------------|----------------------
-------------1------3--1-------1----3------------------|----------------------
----3-----3-------3------------------------3---3---3-3-|----------------------
-3--------------3--------------------------------------|----------------------
----------------------------1------------1---1---1-----|----------------------
-------------------------------------------------------|----------------------
 Rhy.4

-------1-------------------------1-------------------1-|----------------------
-------------1------3--1-------1----3--------------1---|----------------------
----3-----3-------3----------------------------3-------|----------------------
-3--------------3--------------------------3-----------|----------------------
----------------------------1------------1---1---1-----|----------------------
-------------------------------------------------------|----------------------


-------------------1-------3-------5------------------------------|-----------
-5--5--5--5--------1-------3-------6------------------------------|-----------
-5--5--5--5--------2-------4-------7------------------------------|-----------
-5--5--5--5--------3-------5-------7------------------------------|-----------
-3--3--3--3--------3-------5-------5------------------------------|-----------
-------------------1-------3--------------------------------------|-----------
 Rhy.5 Play 2x

-------------------1-------3-------5---------------1-------3------|-----------
-5--5--5--5--------1-------3-------6---------------1-------3------|-----------
-5--5--5--5--------2-------4-------7---------------2-------4------|-----------
-5--5--5--5--------3-------5-------7---------------3-------5------|-----------
-3--3--3--3--------3-------5-------5---------------3-------5------|-----------
-------------------1-------3-----------------------1-------3------|-----------
 Rhy.6

-------------------1-------3-------5---------------1-------3------|-----------
-5-----------------1-------3-------6---------------1-------3------|-----------
-5-----------------2-------4-------7---------------2-------4------|-----------
-5-----------------3-------5-------7---------------3-------5------|-----------
-3-----------------3-------5-------5---------------3-------5------|-----------
-------------------1-------3-----------------------1-------3------|-----------
 Rhy.7

-------------------1-------3-------5------------------------------|-----------
-5-----------------1-------3-------6------------------------------|-----------
-5-----------------2-------4-------7------------------------------|-----------
-5-----------------3-------5-------7------------------------------|-----------
-3-----------------3-------5-------5------------------------------|-----------
-------------------1-------3--------------------------------------|-----------
 Rhy.8

-------1--------------------1--------------------------|----------------------
-------------1------3--1----1--------------------------|----------------------
----3-----3-------3---------3--------------------------|----------------------
-3--------------3-----------3--------------------------|----------------------
----------------------------1--------------------------|----------------------
-------------------------------------------------------|----------------------


----------------------------1----------------5---3---1-|----------------------
----------------------------1--------------------------|----------------------
----------------------------3------------3-5---3---0---|----------------------
----------------------------3--------------------------|----------------------
----------------------------1--------------------------|----------------------
-------------------------------------------------------|----------------------


-------1--------------------1----------------------1---|------------|---------
-------------1------3--1----1------------------1-------|------------|---------
----3-----3-------3---------3----------------3---------|------------|---------
-3--------------3-----------3--------------3-----------|------------|---------
----------------------------1------------1-------------|------------|---------
-------------------------------------------------------|------------|---------
                                                         Play Rhy.3

-1-----1-------------------------1-----------------1---|------------|---------
-1-----------1------3--1-------1----3----------1-------|------------|---------
-3--3-----3-------3--------------------------3---------|------------|---------
-3--------------3--------------------------3-----------|------------|---------
-1--------------------------1------------1-------------|------------|---------
-------------------------------------------------------|------------|---------
                                                         Play Rhy.4

-------1----------------3--------1---------------------|----------------------
-------------1------3-3--------1----3------------------|----------------------
----3------3------3------------------------------------|----------------------
-3-------3------3--------------------------------------|----------------------
----------------------------1--------------------------|----------------------
-------------------------------------------------------|----------------------


---------------|---------------|----------------------------------------------
---------------|---------------|----------------------------------------------
---------------|---------------|----------------------------------------------
---------------|---------------|----------------------------------------------
---------------|---------------|----------------------------------------------
---------------|---------------|----------------------------------------------
 Play Rhy.5 3x   Play Rhy.6 2x

-21b22----------------22-r21b22r21b22-----------------------------------------
--------------------------------------20-----18-------------------------------
----------------------------------------0vvv------------15\14-vvvvvv----------
------------------------------------------------15-\-12--------------12-------
------------------------------------------------------------------------------
------------------------------------------------------------------------------
 Guitar Solo

-----------------------13---vvvvvvvv------------------------------------------
-15b-16-r15--15-15--15-----------------------------------15-----13-vvv-15-----
------------------------------------------------------------15------------15--
-------------------------------------------15----15-v-v-----------------------
--------------------------13vvvvvvvv----13----13-13-v-v-----------------------
-------------------------------------13----------13-v-v-----------------------
                            Bar                     Bar

------------------------------------------------------------------------------
-------------10vv---13-------11-10-vvvv----10--11------11-10------------------
-14-12-vv-10-----10-------10----------------------10vv-------12vv-------------
-----------------------12---------------12------------------------------------
------------------------------------------------------------------------------
------------------------------------------------------------------------------


---------------------------------------------h19b20--20-vvv-20r19-15-18--vvv--
------------------------------------------------------------------------------
-5^---------------------------------------------------------------------------
------------------------------------------------------------------------------
------------------------------------------------------------------------------
------------------------------------------------------------------------------
 Nat.Harm Gradual Dive w/Bar  (Bar back quick)

--17-15----15-----------------------------------13h12h10-12-13-12-10----------
--------18----18b20--vvvvv--13h11h10-11-13-10------------------------13-13----
------------------------------------------------------------------------------
------------------------------------------------------------------------------
------------------------------------------------------------------------------
------------------------------------------------------------------------------
                                                                         .

--------------------------------------------------------------13-vvv----------
-------10-11-13-------10-11-13-10-11vv----11------11--13--11----------13b15---
-10-12----------10-12-------------------------10------------------------------
------------------------------------------------------------------------------
------------------------------------------------------------------------------
------------------------------------------------------------------------------


------------------------------15vv-----10-10--------10-vvvvv|-----------------
---r13----vvv--11-13--11vv-15------11--------13-------------|-----------------
------------------------------------------------------------|-----------------
------------------------------------------------------------|-----------------
-------------------------------------------------10---------|-----------------
------------------------------------------------------------|-----------------
                      AH      AH

-------------------------------------------------------------------|----------
-5--5--5--5------------------------6--6--6--6----------------------|----------
-5--5--5--5------------------------7--7--7--7----------------------|----------
-5--5--5--5------------------------7--7--7--7----------------------|----------
-3--3--3--3------------------------5--5--5--5----------------------|----------
-------------------------------------------------------------------|----------
 Play 2x

------------|------------|------------|------------|-----------------------|--
------------|------------|------------|------------|-----------------------|--
------------|------------|------------|------------|-----------------------|--
------------|------------|------------|------------|-----------------------|--
------------|------------|------------|------------|-----------------------|--
------------|------------|------------|------------|-----------------------|--
 Play Rhy.6   Play Rhy.8   Play Rhy.5   Play Rhy.6   Play Rhy.8 w/overdub-A

-----------------15-------------------|------------------------------|--------
-----------13-------15----------------|-5--5--5--5-------------------|--------
-12-----------------------------------|-5--5--5--5-------------------|--------
--------------------------------------|-5--5--5--5-------------------|--------
--------------------------------------|-3--3--3--3-------------------|--------
--------------------------------------|------------------------------|--------
 Overdub-A                                         Ring out...   END