Rush: Broon's Bane
From the album Exit...Stage Left (Mercury Records)
Copyright 1981 Core Music Publishing
Music by Lifeson

Transcribed by Mark Phillips and Rich Soto 


Music by Alex Lifeson. Performed "live" using a Classical guitar.

I wish I could take credit for this but, I can't.
Originally arrangement by Mark Phillips. I've also seen this tabbed
in an old issue of "The Spirit Of Rush" fanzine from Great Britain.
I've attempted to tab it here so as to be easier to learn & memorize it.

-------0------------0------------0------------0-----|-------------------------
-3-------3------------3------------3------------3---|-------------------------
-----3------------3------------2------------2-------|-------------------------
---0------------0------------0-------0----0---------|-------------------------
-----------0--1---------1---------------0---------0-|-------------------------
-3-------------------------2------------------------|-------------------------


-------0------------0-0----------0------------0-----|-------------------------
---------3-------------------------2------------2---|-------------------------
-----0------------3------------2------------2-------|-------------------------
---0------------0------------2-------2----2---------|-------------------------
-----------0--1---------0--0------------0---------0-|-------------------------
-3--------------------------------------------------|-------------------------


-------0------------0------------0------------0-----|-------------------------
---------3------------3------------3------------3---|-------------------------
-----3------------3------------2------------2-------|-------------------------
---0------------0------------0-------0----0---------|-------------------------
-----------0--1---------1---------------0---------0-|-------------------------
-3-------------------------2------------------------|-------------------------
 Rhy.1

-------0------------0------------0------------1-----|------|------------------
---------3------------3----2-------2----3-------3---|-2----|------------------
-----3------------3------------2------------1-------|-2----|------------------
---0------------0------------2------------3---------|-2----|------------------
-----------0--1---------0--0---------0--1---------0-|-0----|------------------
-3--------------------------------------------------|------|------------------


-5---5------------5------8-----8-\-7--5-----5---|-----------------------------
-6-6---6--------6---6--------5------------5-----|-----------------------------
-7------------7------------5------------5-------|-----------------------------
-0-------0------------0--7-----7-\-6--7---------|-----------------------------
------------0---------------------------------0-|-----------------------------
------------------------------------------------|-----------------------------
 Rhy.2

-5-----5------3-----3------2-----2------------2------------1-----|------------
-----4---4--------3---3--------3---3------------3----3-------3---|------------
---3------------3------------4--------------4------------1-------|------------
-----------5--5---------5-----------------4------------3---------|------------
-3-------------------------2---------2------------2--1---------1-|------------
----------------------------------------2------------------------|------------


-------1------------1-----|---------------------------------------------------
-3-------3------------3---|---------------------------------------------------
-----1------------1-------|---------------------------------------------------
---3------------3---------|---------------------------------------------------
-1---------1------------0-|---------------------------------------------------
--------------1-----------|---------------------------------------------------


---------------------------------0------------0-----|-----------|-------------
-2-----2------------2--------------3------------3---|-----------|-------------
-----2---2--------2---2--------2------------2-------|-----------|-------------
---2------------2------------0-------0----0---------|-----------|-------------
-0---------0--------------------------------------0-|-----------|-------------
--------------3---------3--2------------1-----------|-----------|-------------
 Rhy.3 Play 2x                                        Play Rhy.1

-------0------------0------------0------------0---|-----------|---------------
---------3----3-------3----2-------2------------2-|-----------|---------------
-----3------------3------------2------------2-----|-----------|---------------
---0------------0------------2-------2----2-------|-----------|---------------
-----------0--1---------0--0----------------------|-----------|---------------
-3--------------------------------------0---------|-----------|---------------
                                                    Play Rhy.1

-------0------------0----------|-------------------|-----------|--------------
---------3------------3----2---|-3---3-3---3---2---|-----------|--------------
-----3------------3--------2---|-1---1-1---1---2---|-----------|--------------
---0------------0----------2---|-3---3-3---3---2---|-----------|--------------
-----------0--1---------0--0---|-1---1-1---1---0---|-----------|--------------
-3-----------------------------|-------------------|-----------|--------------
                                                     Play Rhy.2

-5-----5------3-----3------2-------2------------2-|---------------------------
-----4---4--------3---3----------3---3--------3---|---------------------------
---3------------3--------------4------------4-----|---------------------------
-----------5--5--------------4------------4-------|---------------------------
-3----------------------0--2----------------------|---------------------------
----------------------------------------2---------|---------------------------


---------1------------1--------------0-------0----------1------------1---|----
-------3---3--------3---3-------2------3-2-3--------------3------------3-|----
-----1------------1--------2--2---2--2----------------1------------1-----|----
---3------------3----------2---------2--------------3------------3-------|----
-1-------------------------0---------0---------0--1---------1----------1-|----
--------------1------------------------------------------------1---------|----


-----------|-----------------------------------0----------------|-------------
-----------|-2-----2h3p2----------2--------------3----3---------|-------------
-----------|-----2--------------2---2--------2--------2---------|-------------
-----------|---2--------------2------------0-------0--0---------|-------------
-----------|-0-----------0----------------------------x---------|-------------
-----------|----------------3---------3--2------------1---------|-------------
 Play Rhy.3