VAMPIRE BLUES - NEIL YOUNG

--------------------------

from: ON THE BEACH





Submitted by: Charlie Coombs (GUNGBG@aol.com)

(via HyperRust.Org)



CHORDS:

E7#9  G   A   B7  A7

E -0-  -3- -0- -x- -x-

B -8-  -0- -2- -x- -x-

G -7-  -0- -2- -8- -6-

D -6-  -0- -2- -7- -5-

A -7-  -2- -0- -6- -4-

E -0-  -3- -x- -7- -5-



RIFF 1:

E-------x-

B-------x-

G-------8-

D-------7-

A-7-5-0-6-

E-------7-



INTRO:

E----4-----3-----2----------4\2-

B-------------------------------

G-0h4-4-0h3-3-0h2-2-0h1--0h4-\2-

D-------------------------------

A-------------------------------

E-------------------------------



E7#9

I'm a vampire, babe, suckin' blood from the earth

G             A                       E7#9

I'm a vampire, babe, suckin' blood from the earth

B7            A7                       E7#9  RIFF 1

Well, I'm a vampire, babe, sell you twenty barrels worth



I'm a black bat, babe, bangin' on your window pane

I'm a black bat, babe, bangin' on your window pane

Well, I'm a black bat, babe, I need my high octane



SOLO (over VERSE chords)



Good times are comin', I hear it everywhere I go

Good times are comin', I hear it everywhere I go

Good times are comin', but they sure are comin' slow



I'm a vampire, babe, suckin' blood from the earth

I'm a vampire, babe, suckin' blood from the earth

Well, I'm a vampire, babe, sell you twenty barrels worth



more guitar doodling over verse chords



Good times are comin'     and fade....