SONG X - NEIL YOUNG & PEARL JAM
-------------------------------
from: MIRRORBALL


Submitted by: Michael Campbell (MA.MJC@Forsythe.Stanford.EDU)

INTRO:
Em        D       Em    A
|-------0--------2--------0--------0--|
|-------0--------3--------0--------2--|
|-------0--------2--------0--------2--|
|-0h2---2--0-----0--0h2---2--------2--|
|-------2-----------------2--0-----0--|
|-------------------------------------|

Em        A       Em       D/F#
|-------0--------0--------0-----------|
|-------0--------2--------0--------3--|
|-------0--------2--------0--------2--|
|-0h2---2--------2--------2--------0--|
|-------2--0-----0--------2--------0--|
|-------------------0-----0--2-----2--|

Em        D       Em    A
|-------0--------2--------0--------0--|
|-------0--------3--------0--------2--|
|-------0--------2--------0--------2--|
|-0h2---2--0-----0--------2--------2--|
|-------2-----------0h2---2--0-----0--|
|-------------------------------------|

Em      D/F# Em
|-------0-----------0-----------------|
|-------0--------3--0-----------------|
|-------0--------2--0-----------------|
|-------2--------0--2-----------------|
|-0h2---2--------0--2-----------------|
|----------2-----2--0-----------------|

Em       A     C
Hey ho away we go
D
We're on the road to never
Em               A        C
Where life's a joy for girls and boys
D             Em
And only will get better

Em  D    Em    D
Hey ho away we go
Em     D       Em  D
We're on the road to ne-ver

Romeo and Juliet
The doctor and his case
Without a plan they left the van
And there were laid to waste

Hey ho away we go
We're on the road to never

The priest was there with sandy hair
Religion by his side
He saw his law was broken
The punishment was applied

Hey ho away we go
Along the road to never

Hey ho away we go
We're on the road to never

SOLO:  Em A C D  (2x as in verse)
Em D      (4x as in chorus)

He held her hand and wished her well
Although his heart was aching
The cameras rolled, the print was bold
The holy war was breaking

It's hey ho away we go
We're on the road to never
Where life's a joy for girls and boys
And only will get better

Hey ho away we go
Along the road to never
Hey ho away we go
We're on the road to never
Hey ho away we go
Along the road to never
Hey ho away we go
We're on the road to never

SOLO:  Em A C D  (2x as in verse)
Em D      (numerous times...)

The priest was there with sandy hair
Religion by his side
He saw his law was broken
The punishment was applied