RAPID TRANSIT - NEIL YOUNG
--------------------------
from: RE*AC*TOR


Submitted by: Fredrik Johansson (fredrik.johansson@mailbox.hogia.net)

RIFF #1:
Em7               Em7
e-----3-----------|-----3-----------
B-----3-----------|-----3-----------
G-----0-----------|-----0-----------
D-----------0-----|-----------0--2--
A--2-----2-----2--|--2-----2--------
E--0--------------|--0--------------

RIFF #2:
A
e--------|-----------------
B--------|-----------------
G--2-----|-----------2--0--
D--2-----|--------2--------
A--0-----|--0--4-----------
E--------|-----------------

INTRO:
RIFF #2
RIFF #1 (x4)

VERSE 1:
G          RIFF #1 (x2)
Rrrrrrapid Transit
G          RIFF #1 (x2)
Ppppppubic Service
RIFF #2
I'm standing in my line

RIFF #1 (x2)

VERSE 2:
Mmmmmmeltdown
Ccccccontainment
I'm standing in my line

CHORUS:
A          
Hang ten pipeline
G   A
Let's go trippin'
A          
Hang ten pipeline
G   A
Let's go trippin'
A          
Hang ten pipeline
G   A
Let's go trippin'
B             D            E
Every wave is new until it breaks.

SOLO (over RIFF #1)

Go!

RIFF #1 (x4)

VERSE 3:
Ssssssecret Service
Ppppppublic Enemy
I'm standing in my line

RIFF #1 (x2)

CHORUS:
Hang ten pipeline
Let's go trippin'
Hang ten pipeline
Let's go trippin'
Hang ten pipeline
Let's go trippin'
Every wave is new until it breaks.

SOLO (over RIFF #1)

Go!

REPEAT AND FADE:
RIFF #1