BABY WHAT YOU WANT ME TO DO - NEIL YOUNG
----------------------------------------
from: BROKEN ARROW


Submitted by: Fredrik Johansson (fredrik.johansson@mailbox.hogia.net)

NOTE:
This song is a cover originally written by Jimmy Reed.

INTRO:
e---------------------|--------------------
B---------------------|--------------------
G---------------------|--------------------
D-0-2-2-0-------------|--------------0-1-2-
A---------2-2-2-0-----|-----0-1-2--2-------
E-----------------3-0-|-0-3----------------

RIFF 1 (x4)
RIFF 2 (x2)
RIFF 1 (x2)
RIFF 3
RIFF 2
RIFF 1
RIFF 4

RIFF 1 (x4)
RIFF 2 (x2)
RIFF 1 (x2)
RIFF 3
RIFF 2
RIFF 1
RIFF 4

VERSE 1:
RIFF 1
You got me running
You got me hiding
You got me run hide - hide run
RIFF 2
Anyway you want to let it roll
RIFF 1
Yeah, yeah, yeah
RIFF 3
You're doin' what'cha want me
RIFF 2                   RIFF 1     RIFF 4
Baby what'cha want me to do

VERSE 2:
I'm goin' up
I'm goin' down
I'm goin' up, down - down, up
Anyway you want to - let it roll
Yeah, yeah, yeah
You're doin' what'cha want me
Baby what'cha want me to do

SOLO

VERSE 3:
You got me diggin'
You got me hiding
You got me dig hide - hide dig
Anyway you want to let it roll
Yeah, yeah, yeah
You're doin' what'cha want me
Baby what'cha want me to do

SOLO

VERSE 4:
You got me crawling
You got me going
You got me crawl go - go crawl
Anyway you want to let it roll
Yeah, yeah, yeah
You're doin' what'cha want me
Baby what'cha want me to do

SOLO

END ON: E

-------------------------------------------------

RIFF 1:                      RIFF 2:
E                            A
e------------------------    e------------------------
B------------------------    B------------------------
G------------------------    G------------------------
D------------------------    D-2--2--4--2--5--2--4--2-
A-2--2--4--2--5--2--4--2-    A-0--0--0--0--0--0--0--0-
E-0--0--0--0--0--0--0--0-    E------------------------

RIFF 3:                      RIFF 4:
B                            E  A  A# B
e------------------------    e------------
B------------------------    B------------
G------------------------    G------------
D-4--4--6--4--7--4--6--4-    D------------
A-2--2--2--2--2--2--2--2-    A-2--7--8--9-
E------------------------    E-0--5--6--7-