Intro (Play a few times)
||-------r------------------------------------------------------------------||
||-------e------------------------------------------------------------------||
||*------s-----------------------------------------------------------------*||
||*--12--t--9-----9--9--9\7--9--9-----9--9--5\4--5--5-----5--5--5/7--7--7--*||
||---10-----7-----7--7--7\5--7--7-----7--7--3\2--3--3-----3--3--3/5--5--5---||
||--------------------------------------------------------------------------||
                 [----]     [-]      [----]     [-]      [----]     [-]
                   PM       PM         PM       PM         PM       PM



Main Riff
||-----------------------------------------------||
||-----------------------------------------------||
||*---------------------------------------------*||
||*---------------------------------------------*||
||---------10p7-----------5h7--------------5h7---||
||---0--0-----------0--0----------0--5--7--------||
    [----]         [----]        [-------]
      PM             PM             PM


Riff played near end of verse 1
||----------------------------------------------------||
||----------------------------------------------------||
||*--------------------------------------------------*||
||*--------------------------------------------------*||
||------0--0--3--0--0--5--0--0--3--0--0--5--0--0--3---||
||----------------------------------------------------||
                                                                               


"Coda" (lyrics go Faster, Faster....)
||-----------------------------------------------------------------------------
||-----------------------------------------------------------------------------
||*----------------------------------------------------------------------------
||*----------------------------------------------------------------------------
||---------------------------------------------------5--5--5--5--5--5--5--5--5-
||---0--0--0--0--0--0--0--0--0--0--0--0--0--0--5--7----------------------------
    [----------------------------------------------]
                  P a l m   M u t e
                                                                               
----------------------||
----------------------||
---------------------*||
---------------------*||
5--5--5--5--5---------||
---------------5--7---||


===============================================================================
==                           TABLATURE EXPLANATION                           ==
===============================================================================

----------                            ----------
----5h8--- Hammeron                   ----(8)--- Ghost Note
----------                            ----------
----5p8--- Pulloff                    ----------

----------                            ----------
----5/8--- Slide Up                   -----x---- Dead Note
----------                            ----------
----5\8--- Slide Down                 ----------

----------                            ||------|| Repeat Start & End
----5~~~-- Vibrato                    ||*----*||
----------                            ||*----*||
----------                            ||------||

Rhythm:
  w = whole note            W = dotted whole
  h = half note             H = dotted half
  q = quarter note          Q = dotted quarter
  e = eighth note           E = dotted eighth
  s = sixteenth note        S = dotted sixteenth
  ^ = triplet

===============================================================================
==           Created with a shareware version of the BUCKET 'O TAB           ==
==                  tablature creation software for Windows                  ==
==                           For more information:                           ==
==                         email: gse@ocsystems.com                          ==
==     US Mail: The Bucket, 3176-B5 Summit Square Dr., Oakton, VA 22124      ==
===============================================================================