#---------------------------PLEASE----NOTE------------------------------------#
#This file is the author's own work and represents their interpretation of the#
#song.You may only use the file for private ,study ,scholarship,or research.  # 
#-----------------------------------------------------------------------------#


			    MetallicA
			"Carpe Diem Baby"
			  from: Reload
               
                  tabbed out by Jon. Jon@symons.demon.nl

slow rock=76
fade in.
||--------------||
||o------------o||
||--------------||
||---5-5--------||
||o--7-7-------o||
||--------0-0---||
         pm..      

|--------------------------|---------------------------|
|-------12\----------------|------12\------------------|
|-------12\----------------|------12\------------------|
|--------------------------|---------------------------|
|---------------5---5---5--|--------------5---5--------|
|--0-0------0/7---5---3----|-0-0------0/7---5---3--0---|

                                                   *
|-------------------------|--------------------------|
|-------12\---------------|-------12\----------------|
|-------12\---------------|-------12\----------------|
|-------------------------|--------------------------|
|---------------5---5---5-|---------------5---5----5-|
|-3br-0-----0/7---5---3---|--0-0-------/7---5---3--0-|
                                                      *=gtr1 plays lower note
                                                        gtr2 plays higher note.  
|--------------------------------------------|
|--------------------------------------------|
|--------------------------------------------|
|--------------------------------------------|
|------2-2--------5---5---5------------------|
|-3br--0-0----0/7---5---3--------------------|



|-------------------------------|------------------------------|
|-------12/13-12-\--------------|------------------------------|
|-------12/13-12-\--------------|------------------------------|
|-------12/13-12-\--------------|------------------------------|
|----------------------5---5----|------------------------------|
|---0--------------0/7---5---3-0|-3br--0--0--3br--0--0---3b-0-0|

verse
||--------------------------------|---------------------||
||o-------------------------------|--------------------o||
||---7/9--------7/9/10\9-------7/9|-7--7----9--10---5---||
||---7/9--------7/9/10\9-------7/9|-7--7----9--10---5---||
||o--5/7--------5/7/-8\7-------5/7|-5--5----7--8----3--o||
||--------0--0------------0--0----|-5--5----7--8----3---||
 |       pm...           pm...
||--------------------------------|-0------0-0----------||
||o-------------------------------|--3-----3-3---3---3--||
||---7/9--------7/9/10\9----------|---2----2-2---0---0--||
||---7/9--------7/9/10\9----------|---0----0-0----------||
||o--5/7--------5/7/-8\7----------|----0---------3---3--||
||---5/7--0--0--5/7/-8\7--0--0----|---------------------||
        
pre-chorus
||---------------------------|-------------------------||
||o--------------------------|------------------------o||
||-------0-----0-----0-----0-|-------------------------||
||-----2-----2-----2-----2---|--2--2--2--2--2--2--2--2-||
||o--2-----1-----------------|--2--2--2--2--2--2--2--2o||
||---------------3-----2-----|--0--0--0--0--0--0--0--0-||
 |   pm.   pm.   pm.   pm.      pm........
||---------------------------|-------------------------||
||o--------------------------|------------------------o||
||---4-----3-----------------|--9-----9-----9-----9----||
||---4-----3-----5-----4-----|-------------------------||
||o--2-----1-----5-----4-----|--7-----7-----7-----7---o||
||---------------3-----2-----|-----0-----0-----0-----0-||
                                  pm     pm    pm    pm


|-----------------------------|-----------------------------------|
|-----------------------------|-----------------------------------|
|--7---7--7-9--10---5---5-----|-----------------------------------|
|--7---7--7-9--10---5---5-----|--5-5-----5-5-----5-5-----5-5------|
|--5---5--5-7---8---3---3-----|--7-7-----7-7-----7-7-----7-7------|
|--5---5--5-7---8---3---3-----|------0-0-----0-0-----0-0-----0-0--|

chorus:     let ring
||------------------------------|----------------------------------||
||o-----------------------------|---------------------------------o||
||-----4-----2----2----2----2/--|----------------------------------||
||--5-----4-----3------2h3--2/--|--5-5-----5-5-----5-5-----5-5-----||
||o-----------------------------|--7-7-----7-7-----7-7-----7-7----o||
||------------------------------|------0-0-----0-0-----0-0-----0-0-||
 |
||------------------------------|----------------------------------||
||o-----------------------------|---------------------------------o||
||------------------------------|----------------------------------||
||--------------3------2--------|--5-5-----5-5-----5-5-----5-5-----||
||o-------------0------0--------|--7-7-----7-7-----7-7-----7-7----o||
||--0-----2---------------------|------0-0-----0-0-----0-0-----0-0-||

    let ring
|-------------------------------|----------------------------------|
|-------------------------------|----------------------------------|
|------4-----2----2----2----2/--|---2---2-----2---2---2--2---------|
|---5-----4-----3------2h3--2/--|---2---2-----2---2---2--2---------|
|-------------------------------|---0---0-----0---0---0--0---------|
|-------------------------------|----------0-----------------------|

|-0----0---0------0------------------|
|-3----3---3/5----5---3--------------|
|-0----0-----------------------------| continue with main riff. 
|-2----2-----------------------------| then back to verse and pre -
|-3----3-----------------------------| chorus and chorus .
|---------------------------------3/-|


||-----------------------------------||
||o-------12bgrad.----13bgrad.------o||
||--------12bgrad.----13bgrad.*------||
||-----------------------------------||   *bend gradual
||o---------------------------------o||
||--0--0----------0--0---------------||

solo backing before solo starts play this 2x.          (repeat 6X)
||------------------------------|----------------------------------||
||o-----------------------------|---------------------------------o||
||-------9-------------9--------|------9------7--------5-----------||
||------------------------------|-------------7---7----5-----------||
||o------7-------------7--------|------7------5---7----3----------o||
||--0-0------0-0--0-0------0--0-|-0--0---0--0-----5--------3--2----||

||------------------------------|----------------------------------||
||o-----------------------------|---------------------------------o||
||--4-4--5---4-4--4-4--5---4--4-|-4--4-5-4--4-7--------5-----------||
||--4-4--5---4-4--4-4--5---4--4-|-4--4-5-4--4-7---7----5-----------||
||o-2-2--3---2-2--2-2--3---2--2-|-2--2-3-2--2-5---7----3----------o||
||------------------------------|-----------------5--------3--2----||

then play the gradually bend part.
and then play this:
|-------------------------------|-0--------------------------------|
|-------------------------------|-0--------------------------------|
|----------------------------0--|-0--------------------------------|
|-------------------------------|----------5/7-7-7/9-9-12/14--14---|
|--2----------------------------|---5/7-7--------------------------|
|--0----------------------------|----------------------------------|

after the last chorus where he sings:come make me miss you ,
come carpe diem baby , . at the last couple of words play an F5.

solo:
|-------------------------------|----------------------------------|
|------12b------------12b-------|-------12b------------------------|
|------12b------------12b-------|-12----12b----12-14---------------|
|----x-----14-14~~-14-----14-14~|-12-14-----14-12----12-12h14--14~~|
|---x---------------------------|----------------------------------|
|--x----------------------------|----------------------------------|

|----------------------------------------|------------------------------|
|-------------12b------------------------|--------12b-------12----------|
|-12----------12b--------------12--14-12~|--------12b-------12-12----14b|
|-12-14-14-14-----14-14--12/14-----------|-/14-12-----14-12-------14----|
|----------------------------------------|------------------------------|
|----------------------------------------|------------------------------|

        2gtrs arranged for 1........................................
|-----------------------------------|-----------------------------|
|-14-12-----------------------------|-----------------------------|
|-14-12-------9------*-----------9b~|---------------------9b--9~--|
|---------9---6b-r-6|9------6|9--9b~|-/6--6b|9b---6--6|9--9b--9~--|
|--------/7-------------7-----------|-/7----------7---------------|
|-----------------------------------|-----------------------------|

   the top gtr and guitar on left is solo gtr.
.................................................................|
|-------------------------------|---------------------------------|
|-------------------------------|---------------------------------|
|-------------------------------|-----------------------------9b--|
|-/6--6b|9b-----6b|9b-----------|-6b|9b--r~~--7|11-6/7|9/11---9b--|
|-/7---------7------------7-----|---------------------------------|
|-------------------------------|---------------------------------|

|-------------------------------|---------------------------------|
|--0--0-0-0--0-0----0-0-0--0-0--|--0-0-0--0-0-0--0--0---0---------|
|-/4--4-4-5--4-4---/4-4-5--4-4--|--4-4-5--4-4-4--4--4---4---------|
|-------------------------------|---------------------------------|
|-------------------------------|---------------------------------|
|-------------------------------|---------------------------------|

|-------------------------------|---------------------------------|
|-0-0-0-0-0-0-0-0-0-0---0--0--0-|-0--0--0--0-0--0--0--------------|
|/8-5-4-2-4-8-9-8-6-8--/11-12-11|/11-12-11-9-11-11-12-14-16-14-16~|
|-------------------------------|---------------------------------|
|-------------------------------|---------------------------------|
|-------------------------------|---------------------------------|

|-------12----------14----------|---------15------------17--------|
|-------15b---------17brb~------|---------18b-----------20brb-----|
|-------------------------------|---------------------------------|
|-------------------------------|---------------------------------|
|-------------------------------|---------------------------------|
|-0-0---------0-0---------------|---0-0---------0-0---------------|

2gtrs
|--22b~--22b-22b-22b--22br------|------------------------------------|
|--22b~--22b-22b-22b--22br-20h22|-20b----------8/10-10/12-12-15/17-17|
|-------------------------------|----21--7/9-9-7/9--9-/11-11-14/16-16|
|-------------------------------|--------7/9-9-----------------------|
|-------------------------------|------------------------------------|
|-------------------------------|------------------------------------|

|-------------------------------|
|--17~---12b\0------------------|
|--16~---12b\0------------------|
|-------------------------------|
|-------------------------------|
|-------------------------------|

thats it , there's a little outtro solo, but just mess around with it.
thank you , any questions or comments ? jon@symons.demon.nl