RETURN TO HANGER by MEGADETH
From The Album THE WORLD NEEDS A HERO

Here are all the main riffs for the song.

INTRO:
                x3
|-----------------|---------------|
|-----------------|---------------|
|-----------------|---------------|
|-----------------|---------------|
|-2-22-2-2-2-2-22-|-2-22-2-2-2-25-|
|-0-00-0-0-0-0-00-|-0-00-0-0-0-03-|


VERSE:

|-----------------|-----------------|-----------------|
|-----------------|-----------------|-----------------|
|-----------------|-----------------|-----------------|
|-----------------|-5-55-5-5-5-5-55-|-2-22-2-2-2-2-22-|
|-2-22-2-2-2-2-22-|-3-33-3-3-3-3-33-|-0-00-0-0-0-0-00-|
|-0-00-0-0-0-0-00-|-----------------|-----------------|

              x2
|---------------|
|---------------|
|---------------|
|-3-33-3-4-4-44-|
|-1-11-1-2-2-22-|
|---------------|


RIFF under 1st SOLO:

|---------------------------------------|
|---------------------------------------|
|---------------------------------------|
|-4-4----4-----------3-3----3-----------|
|-2-2----2--2-2-2--2-1-1----1--2-2-2--2-|
|-----00----0-0-0--0-----00----0-0-0--0-|
      p.m   --p.m--      p.m   --p.m--
                                            x2
|---------------------------------------------|
|---------------------------------------------|
|---------------------------------------------|
|-4-4-----4----------3-3----4(2)--------------|
|-2-2-----2-2-2-2--2-1-1----2(2)2-----2-------|
|-----00----0-0-0--0-----00-------5-3---5-3-2-|
      p.m   --p.m---     p.m

Play the whole progression through twice:
Verse/solo riff/verse/solo riff.


Bridge:Gtr 1
|-----------------|-----------------|
|-----------------|-----------------|
|-----------------|-----------------|
|-----------------|-----------------|
|-9~-10-7---------|-9~-10-7---------|
|---------7-7h8-7-|---------7-7h8-7-|
                                     x3
|-----------------|--------------------|
|-----------------|--------------------|
|-----------------|--------------------|
|-----------------|-------------9h10-9-|
|-9~-10-7---------|-9~-10-12-10--------|
|---------7-7h8-7-|--------------------|

|-------------------|---------------------------|
|-------------------|---------------------------|
|-------------------|---------------------------|
|---------9h10------|-------9h10-9------------2-|
|-12-10-7------9-10-|-12-10--------10-9h10p9--2-|
|-------------------|-------------------------0-|


Gtr 2: harmonized part starts on the 3rd repeat
|-----------------|-----------------|
|-10-12-8---------|-10-12-8---------|
|---------9-7h9-7-|---------9-7h9-7-|
|-----------------|-----------------|
|-----------------|-----------------|
|-----------------|-----------------|

|-----------------|-------------12h13-12-|
|-10-12-8---------|-10-12-13-12----------|
|---------9-7h9-7-|----------------------|
|-----------------|----------------------|
|-----------------|----------------------|
|-----------------|----------------------|

|-----------------|-----------------|
|-10-12-8---------|-10-12-8---------|
|---------9-7h9-7-|---------9-7h9-7-|
|-----------------|-----------------|
|-----------------|-----------------|
|-----------------|-----------------|
                                                      *
|-----------12-------|-------12h13-12--------------------|
|--13-12-10----12-13-|-15-13----------13-12h13-12-12(12)-|
|--------------------|-----------------------------------|
|--------------------|-----------------------------------|
|--------------------|-----------------------------------|
|--------------------|-----------------------------------|

 *Gtr 2 holds this note till it feedsback then is slide down neck
                  *
|-------------------------|
|---------------(12)\-----|
|-------------------------|
|-(2)--2--2--2------------|
|-(2)--2--2--2------------|
|-(0)--0--0--0------------|

Fast bit:its a bit tricky to tab,but I'll do my best
I think it's in groups of 4

Fast riff 1:
|-----------------------------------------|
|-----------------------------------------|
|-----------------------------------------|
|-----------------------------------------|
|---------------------------------------5-|
|-0000-0000-0000-0000-0000-0000-0000-0003-|
                                       x2
|----------------------------------------|
|----------------------------------------|
|----------------------------------------|
|----------------------------------------|
|------------------------------------5-5-|
|-0000-0000-0000-0000-0000-0000-0000-3-3-|

Riff 2:
|-------------------------------------------|
|-------------------------------------------|
|-------------------------------------------|
|-------------------------------------------|
|-2(2)-4(4)-5(5)-7(7)-9(9)-2(2)-10(10)-9(9)-|
|-0(0)-2(2)-3(3)-5(5)-7(7)-0(0)-8-(8)--7(7)-|

Now reapeat both riffs till the end off the song.
and play riff 2 twice just before the end of the end
And finish on an E5 chord.
And BOB's your uncle thatsAll the riffs for Return To Hanger
If ya want the solo's
Go figure them out for yourself!   Tabbed by Andrew :)

Articles liés :

Pin It on Pinterest

Spelling error report

The following text will be sent to our editors: