Simple Man   -- Lynyrd Skynyrd --
>From CD : The Essential

Hi! It's what I could figure out the break of the song. It's the first time
I try to tab a song... so if there are mistakes, please do not hesitate to
tell me. Have fun!

[ Eb Ab Db Gb Bb Eb ]

s/ : slide up
\s : slide down
b : bend 
br : bend and release
h : hammer
p : pull

What Jesse sent about the intro is right except during the song. There is a
variation :

-------------------0--------3-----------------------------------------------
-----------1------0--------0------------------------------------------------
-2----------2-----------2---------------------------------------------------
---2---------2-------2------------------------------------------------------
----0-----------------------------------------------------------------------
----------------------------------------------------------------------


Now the break :

----------------------------------------------------------------------------
---------------------------------------------10-13-10-s/16~~~-br18-(16)14---
--------------------------------------s/10h13-------------------------------
-s/15~~~~-br17-(15)-13-br15-(13)-11-----------------------------------------
----------------------------------------------------------------------------
----------------------------------------------------------------------


------------------------18--18-18-18-b21-18-18\s-s/18-b21-18\s16-s/16------b
r16-(14)10--18-18h21--------------------------------------------------------
----------------------------------------------------------------------------
----------------------------------------------------------------------------
----------------------------------------------------------------------------
--------------------------------------------------------------------

s/16-s/16-16\s11s/16\s11s/16------------------------------------------------
----------------------------------------------------------------------------
---------------------------------------------------------------11--13-------
--------------------------s/15-br15-br15-15-13-13p11h13----13---13----------
----------------------------------------------------------------------------
--------------------------------------------------------------------

there, I'm not quite sure
-----------------------------s/18~----18-b20-18-16--16-18-16h18-b21---------
----------------------s/16--------------------------------------------------
------------s/13-s/16---------------------------------------------------
s/10-s/13-------------------------------------------------------------------
----------------------------------------------------------------------------
-------------------------------------------------------------------------



----------------------------------------------------------------------------
-15-17----------------------------------------------------------------------
-------15h18p15-------------------------------------------------------------
----------------------------------------------------------------------------
----------------------------------------------------------------------------
----------------------------------------------------------------------



  hey, I just wanted to add the solo to the tabs already posted for the 
song, I don't think there are any right now...

  hey, this is the solo for simple man, I'm Jesse Anderson, I'm only 14, and 
I've been playing for about 1 year, so be forgiving..


  even though you may not want it, here's the rythym behind the solo

     a b C, C b G, slide from G to A


   here's the solo, it's pretty simple, but there are two guitars playing, I 
think they have the same part
I appologize, no timing, couldn't figure it out with all this stop&go 
crap...

E|-----------------------------------------------------8------------| 
B|-------------8---------------8--------------5--7/10-----10~~~-----|  
G|----5--7~~~-----\7--5--7~~~-----\7--5-----7-----------------------| 
D|-7-------------------------------------7--------------------------| 
A|------------------------------------------------------------------| 
E|------------------------------------------------------------------|




E|-----------------20------------------20---------------------------| 
B|-----------------20------------------20----------20~~~~~~~--------|  
G|------17--19~~~------\19--17--19~~~-----\19--17-------------------| 
D|//19--------------------------------------------------------------| 
A|------------------------------------------------------------------| 
E|------------------------------------------------------------------|
E|------18--20~~20~~20b22~~~(release bend)--17------17~~~-----17-----| 
B|--20------------------------------------------20-------\20~~~~~~\20|  
G|-------------------------------------------------------------------| 
D|-------------------------------------------------------------------| 
A|-------------------------------------------------------------------| 
E|-------------------------------------------------------------------|


E|------------17------------17------------17--------17------17-------|
B|--//20--20------//20--20------//20--20--------20------20------20~~~|
G|-------------------------------------------------------------------|
D|-------------------------------------------------------------------|
A|-------------------------------------------------------------------|
E|-------------------------------------------------------------------|


E|-----------8-----------8------------------------------------------| 
B|-----------8-----------8--------10~~~~~~--------------------------|  
G|-----5--7~~~~\7--5--7~~~~\7--5--------------------//5--5--/7h9----| 
D|--7---------------------------------------//7--7------------------| 
A|------------------------------------------------------------------| 
E|------------------------------------------------------------------|


E|-------------|
B|--8--10~~~~~-|
G|-------------|
D|-------------|
A|-------------|
E|-------------|


E|-----------------20------------------20---------------------------| 
B|-----------------20------------------20----------20~~~~~~~--------|  
G|------17--19~~~------\19--17--19~~~-----\19--17-------------------| 
D|//19--------------------------------------------------------------| 
A|------------------------------------------------------------------| 
E|------------------------------------------------------------------|


                  End solo, here's the break
E|------------------------------------------------------------------| 
B|--10--------------------------------------------------------------|  
G|------5h7p5-------------------------------------------------------| 
D|-------------7~~~~------------------------------------------------| 
A|------------------------0--2--3~~~--/7--5--2--------/7--5--3--
E|----------------------------------------------3~~~----------------|



E|------------------------------------------------------------------| 
B|------------------------------------------------------------------|  
G|------------------------------------------------------------------| 
D|-------------------------7----------------------------------------| 
A|--0~~~~------------------7----------------------------------------| 
E|---------0--3--0--5~~~~--5---------------------------------------|




   ok, there you go


  KEY

/=slide up
\=pre-bend
~=vibrato
h=hammer
p=pull