"Mr. Banker" off of The Essential Lynyrd Skynyrd album

Written by Ronnie Van Zant - Gary Rossington

(This is only the first guitar part, it does not=20
 include the slide guitar part)


Intro:
e--------------------------------------------5---5\--------------
B----------------------------------3h4--3h4--4---4\--------------
G----------------------2--3--4----(2)--(2)---4---4\--------------
D-------------------2--2--3--4-----4----4----4---4\--2-----------
A----------2-----------0--1--2--2--2----2----2-2-2\--------------
E-0--0-3/4---4-0--0------------------------------------3b---0----


e--------------------------------------------3---3\--------------
B-------------------------------1/2\1/2\1/2--2---2\--------------
G--------------------------------------------2---2\--------------
D------------2-4b5-2------------------------(2)-(2)\--2----------
A--------2-4-----------------0-----------------0-----------------
E--0-3/4-------------2-3-4-5----------------------------3b---0---


e-----------------------------------------5---5\-----------------
B-------------------------------3h4--3h4--4---4\-----------------
G-------------------2--3--4----(2)--(2)---4---4\-----------------
D------------2~--2--2--3--4-----4----4----4---4\-----------------
A--------2-4--------0--1--2--2--2----2----2-2-2\-----------------
E--0-3/4-------0----------------------------------0-2/3--0-------


e-------------------------------------------------2--2-----------
B----------------------------------------------------------------
G-----------------------------------------------2----------------
D------------2-4b5-2------------2-------------1------------------
A--------2-4---------4-2------------0---1---2--------------------
E--0-3/4-----------------4-0--0---x---x---x-------------3b---0---


e------------------------------------------5---5\----------------
B--------------------------------3h4--3h4--4---4\----------------
G--------------------2--3--4----(2)--(2)---4---4\----------------
D-----------------2--2--3--4-----4----4----4---4\----------------
A--------2-----------0--1--2--2--2----2----2-2-2\----------------
E--0-3/4---4-0--0----------------------------------0--2/3--0-----


e---------------------------------------3---3\-------------------
B----------------------------1h2--1h2---2---2\-------------------
G-------------------0--1--2-------(0)---2---2\-------------------
D------------2~--2-----------------------------2-----------------
A--------2-4--------------0-------(0)---0-0----------------------
E--0-3/4-------0----3--4--------------------------3b---0---------


e--------0-----0-------------------------------5---5\------------
B----------------3-------------------3h4--3h4--4---4\------------
G----0h1-----------------2--3--4----(2)--(2)---4---4\------------  =20
D---------------------2--2--3--4-----4----4----4---4\------------
A------------------------0--1--2--2--2----2----2-2-2\------------
E--0--------0-------0---------------------------------0--2/3--0--


e------------------5----------------------------------2----------
B------------------2--------------------------------0---0--------
G-------0--1--2----2------------------------------2-------2------
D----2----------------------------2-------------1-----------1----
A-------------0--0--------------------0---1---2---------------2--
E--0----3--4---------0--2/3--0--0---x---x---x--------------------





Mr Banker...          Mr Please...

e--------------------------------------------5---5\--------------
B----------------------------------3h4--3h4--4---4\--------------
G----------------------2--3--4----(2)--(2)---4---4\--------------
D-------------------2--2--3--4-----4----4----4---4\--2-----------
A----------2-----------0--1--2--2--2----2----2-2-2\--------------
E-0--0-3/4---4-0--0------------------------------------3b---0----


e-----------------------------------------3---3\-----------------
B------------------------------1h2--1h2---2---2\-----------------
G-------------------0--1--2---------(0)---2---2\-----------------
D------------2~--2-----------------------------------------------
A--------2-4--------------0--0------(0)---0-0--------------------
E--0-3/4-------0----3--4--------------------------0---2/3---0----


e-----------------------------------------5---5\-----------------=09
B-------------------------------3h4--3h4--4---4\-----------------
G-------------------2--3--4----(2)--(2)---4---4\-----------------=09=20
D------------2~--2--2--3--4-----4----4----4---4\-----------------
A--------2-4--------0--1--2--2--2----2----2-2-2\-----------------
E--0-3/4-------0----------------------------------0-2/3--0-------


e-----------------------------------------------------2----------
B---------------------------------------------------0---0--------
G-------------------------------------------------2-------2------
D------------2-4b5-4b5-2----------2-------------1-----------1----
A--------2-4-------------2------------0---1---2---------------2--
E--0-3/4-------------------4-0--0---x---x---x--------------------





  Ain't got no house...  Ain't got no car...
e--------------------------------------------5---5\--------------
B----------------------------------3h4--3h4--4---4\--------------
G----------------------2--3--4----(2)--(2)---4---4\--------------
D-------------------2--2--3--4-----4----4----4---4\--2-----------
A----------2-----------0--1--2--2--2----2----2-2-2\--------------
E-0--0-3/4---4-0--0------------------------------------3b---0----


e-----------------------------------------3---3\-----------------
B------------------------------1h2--1h2---2---2\-----------------
G-------------------0--1--2---------(0)---2---2\-----------------
D------------2~--2-----------------------------------------------
A--------2-4--------------0--0------(0)---0-0--------------------
E--0-3/4-------0----3--4--------------------------0---2/3---0----


e-----------------------------------------5---5\-----------------
B-------------------------------3h4--3h4--4---4\-----------------
G-------------------2--3--4----(2)--(2)---4---4\-----------------
D------------2~--2--2--3--4-----4----4----4---4\-----------------
A--------2-4--------0--1--2--2--2----2----2-2-2\-----------------
E--0-3/4-------0----------------------------------0-2/3--0-------


e------------------5----------------------------------2----------
B------------------2--------------------------------0------------
G-------0--1--2----2------------------------------2--------------
D----2----------------------------2-------------1----------------
A-------------0--0--------------------0---1---2------------------
E--0----3--4---------0--2/3--0--0------------------------3b--0---


e------------------------------------------5---5\----------------
B--------------------------------3h4--3h4--4---4\----------------
G--------------------2--3--4----(2)--(2)---4---4\----------------
D------------2~---2--2--3--4-----4----4----4---4\--2-------------
A--------2-----------0--1--2--2--2----2----2-2-2\----------------
E--0-3/4---4----0-------------------------------------3b---0-----


e-----------------------------------------3---3\-----------------
B-------------------------------1h2-1h2---2---2\-----------------
G-------------------------------0---0-----2---2\-----------------
D------------2-4b5-2---------------------------------------------
A--------2-4-----------------0------0-----0-0--------------------
E--0-3/4-------------2-3-4-5----------------------0---2/3---0----


e-----------------------------------------5---5\-----------------
B-------------------------------3h4--3h4--4---4\-----------------
G-------------------2--3--4----(2)--(2)---4---4\-----------------
D------------2~--2--2--3--4-----4----4----4---4\-----------------
A--------2-4--------0--1--2--2--2----2----2-2-2\-----------------
E--0-3/4-------0----------------------------------0-2/3--0-------


e------------------5--------------0--------------------2---------
B------------------2--------------0------------------0-----------
G-------0--1--2----2--------------1----------------2-------------
D----2----------------------------2-------------1----------------
A-------------0--0--------------------0---1---2------------------
E--0----3--4---------0--2/3--0--0-------------------------3b--0--


e------------------------------------------------5---5\----------
B------------------------------------3h4----4----4---4\----------
G---------------------2--3--4----4--(2)----(2)---4---4\----------
D------------2~--2~---2--3--4----4---4------4----4---4\----------
A--------2------------0--1--2--2-----2---2--2----2-2-2\----------
E--0-3/4---4---0---0-------------------------------------0-2/3---


e-------------------------------------------------3---3\---------
B-2/3-3-3-3--2\3-3-3--2\3-3-3--------------1h2----2---2\---------
G-3/4-4-4-4--3\4-4-4--3\4-4-4-4p2--------0------0-2---2\---------
D---------------------------------0-2/7--------------------------
A---------------------------------------0------0----0------------
E--------------------------------------------------------0-2/3-0-


e------------------------------------------5---5\----------------
B--------------------------------3h4--3h4--4---4\----------------
G--------------------2--3--4----(2)--(2)---4---4\----------------
D------------2~---2--2--3--4-----4----4----4---4\----------------
A--------2-----------0--1--2--2--2----2----2-2-2\----------------
E--0-3/4---4----0----------------------------------0---2/3---0---


e---------------------------------------------------2------------
B-------------------------------------------------0---0----------
G-----------------------------------------------2-------2--------
D------------2-4b5-2--------2---2-------------1-----------1------
A--------2-4---------4--------------0---1---2---------------2----
E--0-3/4---------------2--3---0----------------------------------






I would not be here...          On my knees...
e--------------------------------------------5---5\--------------
B----------------------------------3h4--3h4--4---4\--------------
G----------------------2--3--4----(2)--(2)---4---4\--------------
D-------------------2--2--3--4-----4----4----4---4\--------------
A----------2-----------0--1--2--2--2----2----2-2-2\--------------
E-0--0-3/4---4-0--0-----------------------------------0--2/3--0--



e-----------------------------------------3---3\-----------------
B------------------------------1h2--1h2---2---2\-----------------
G-------------------0--1--2---------(0)---2---2\-----------------
D------------2~--2-----------------------------------------------
A--------2-4--------------0--0------(0)---0-0--------------------
E--0-3/4-------0----3--4--------------------------0---2/3---0----



e-----------------------------------------5---5\-----------------
B-------------------------------3h4--3h4--4---4\-----------------
G-------------------2--3--4----(2)--(2)---4---4\-----------------
D------------2~--2--2--3--4-----4----4----4---4\-----------------
A--------2-4--------0--1--2--2--2----2----2-2-2\-----------------
E--0-3/4-------0----------------------------------0-2/3--0-------



e-----------------------------------------------------2----------
B---------------------------------------------------0---0--------
G-------0--1--2----2\-----------------------------2-------2------
D----2-------------2\-------------2-------------1-----------1----
A-------------0--0--------------------0---1---2---------------2--
E--0----3--4---------0--2/3--0--0--------------------------------






Said ain't got no house...=09Ain't got no car...
e----------------------------------------------------------------
B----------------------------------------------------------------
G---------------1---------2--3--4-------------------4\-----------
D-------------2---2~---2--2--3--4--------4----------4\--2--------
A---1/2-5-2-5-------------0--1--2--2-2/6---6\2-2--2-2\-----------
E-0------------------0------------------------------------3b--0--



e---------------------------------------------3---3\-------------
B--------------------------------1/2\1/2\1/2--2---2\-------------
G-------------------0--1--2---2-(0)-----------2---2\-------------
D------------2~--2-----------------------------------------------
A--------2-4--------------0-0---(0)-----------0-0----------------
E--0-3/4-------0----3--4------------------------------0--2/3--0--



e----------------------------------------------5---5\------------
B----------------3-------------------3h4--3h4--4---4\------------
G----0h1-----------------2--3--4----(2)--(2)---4---4\------------  =20
D---------------------2--2--3--4-----4----4----4---4\------------
A------------------------0--1--2--2--2----2----2-2-2\------------
E--0--------0-------0---------------------------------0--2/3--0--



e-------------------------------------4-------3-------2----------
B----------------------------------------------------------------
G---------------------------------2/4---4---3---3---2---2--------
D------------2-4b5-4b5-2-----------------------------------------
A--------2-4-------------2---------------------------------------
E--0-3/4-------------------4-0-----------------------------------



e--0-------------*12*--------------------------------------------
B----0-----------------------------------------------------------
G------1---------------------------------------------------------
D--------2-------------------------------------------------------
A----------2-----------------------------------------------------
E------------0---------------------------------------------------

=09=09=09=09=09-EM-

     =20
      h - hammer on=20
      p - pull off=20
      b - bend string up
      r - release bend
      / - slide up
      \ - slide down
      v - vibrato (sometimes written as ~)
      t - right hand tap
      x - play 'note' with heavy damping
      * - harmonic



Song : Mr.Banker (slide part)
Artist : Lynyrd Skynyrd
Album : Gold and platinum
Tabbed by : Frederic Briere
Ilie_cobra@hotmail.com


h   - hammer on
p   - pull off
b   - bend string up
bb  - 1 1/2 tone bend
H   - hold bend
r   - release bend
/   - slides
~   - vibrato
x   - play 'note' with heavy damping
(*) - harmonics


First, you have to tune the first string in D



D----------------------------------------------------------
B------(8)\7---5-----/9----/9~-----------------------------
G----------------------------------------------------------
D----------------------------------------------------------
A----------------------------------------------------------
E----------------------------------------------------------

D----------------------------7------7/9\7------------------
B------(8)\7---5----/7----------7-----------7--------------
G-----------------------------------------------6/7\6\4~---
D----------------------------------------------------------
A----------------------------------------------------------
E----------------------------------------------------------

D-------------------------9---------9------/12-------------
B------(8)\7---5------/9--------/9-----9--------12\--------
G----------------------------------------------------------
D----------------------------------------------------------
A----------------------------------------------------------
E----------------------------------------------------------


D----------------------------------------------------------
B------12\10--9---/10---/10--/10-9---/12-------------------
G------------------------------------------11/12\11\9~-----
D----------------------------------------------------------
A----------------------------------------------------------
E----------------------------------------------------------


D------------9\7------9---12/14~-------/(17)----/14~-------
B-------7/9--------9---------------------------------------
G----------------------------------------------------------
D----------------------------------------------------------
A----------------------------------------------------------
E----------------------------------------------------------

D----------4-----------------------------------------------
B------/4--------4/5\4-------------------------------------
G------------------------4\2--0--2/4---------2/4\2---------
D----------------------------------------------------------
A----------------------------------------------------------
E----------------------------------------------------------

D------------------------9---------------------------------
B--------------------/9------/9\7--5---/5~-----------------
G-----7/9\7~/9---------------------------------------------
D----------------------------------------------------------
A----------------------------------------------------------
E----------------------------------------------------------

D----------------------------------------------------------
B---------2------3--------4--------------------------------
G-----/2-----/3------/4--------------------//////--(24)----
D-------------------------------/////--------------(24)----
A----------------------------------------------------------
E----------------------------------------------------------






Verse 1


D----------------------------------------------------------
B----------------------------------------------------------
G---------------------------------/8----6/7\6---4~---------
D----------7-----8-----9-----------------------------------
A-------7-----8-----9--------------------------------------
E----------------------------------------------------------

D----------------------------------------------------------
B----------------------------------------------------------
G----------------------------------------------------------
D----------5-----6-----7------/10----9/10\9---7~-----------
A-------5-----6-----7--------------------------------------
E----------------------------------------------------------

D----------------------------------------------------------
B----------------------------------------------------------
G----------------------------------------------------------
D-----------7-----8------9/8\9~---------9\7~---------------
A-------/7-----8-----9-------------------------------------
E----------------------------------------------------------


D----------------------------------------------------------
B-------------2------3------4\2--0--/4--/4---//////////----
G---------/2-----/3-----4---------------------//////////---
D----------------------------------------------------------
A----------------------------------------------------------
E----------------------------------------------------------








Verse 2



D---------------------------------------9------------------
B-----------------------------------/7---------------------
G--------------------------------------------7\6---4~------
D----------7-----8------9----------------------------------
A------/7-----8-----9--------------------------------------
E----------------------------------------------------------


D----------------------------------------------------------
B----------------------------------------------------------
G----------------------------------------------------------
D----------5-----6-----7------------4/5\4---2~-------------
A-------5-----6-----7--------------------------------------
E----------------------------------------------------------

D----------------------------------------------------------
B----------------------------------------------------------
G----------------------------------------------------------
D-----------7-----8------9\8/9~---------9\7~---------------
A-------/7-----8-----9-------------------------------------
E----------------------------------------------------------


D----------------------------------------------------------
B----------------------------------------------------------
G----------7-------8--------/9\7/9-----7\6--4---/9~--------
D------/7-----/8-------/9----------------------------------
A----------------------------------------------------------
E----------------------------------------------------------


D----------------------------------------------------------
B---------5----6-----7~------------------------------------
G------/5---/6---/7----------------------------------------
D----------------------------------------------------------
A----------------------------------------------------------
E----------------------------------------------------------








Solo :


D-------9\7--6---/9--/9------------9\7--6-------7-----7/9--
B-------------------------------------------/7-----7-------
G----------------------------------------------------------
D----------------------------------------------------------
A----------------------------------------------------------
E----------------------------------------------------------

D----------------------------------------------------------
B-----7---7------------------------------------------------
G--------------6/7\6--4-----/8~----------------------------
D----------------------------------------------------------
A----------------------------------------------------------
E----------------------------------------------------------

D---------------------9------------9------------9----------
B------(8)\7--5---/9-----/9\7--/9-----/9\7--/9-------------
G----------------------------------------------------------
D----------------------------------------------------------
A----------------------------------------------------------
E----------------------------------------------------------

D----------------9--------------9--------------------------
B------/9\7--/9-------/9\7--/9------9--/10--/10--/10-9-----
G----------------------------------------------------------
D----------------------------------------------------------
A----------------------------------------------------------
E----------------------------------------------------------

D------------------------------------9\7------9------------
B-------/12----------------------/9-------/9---------------
G-------------11/12\11---9~--------------------------------
D----------------------------------------------------------
A----------------------------------------------------------
E----------------------------------------------------------

D-----/14~-----/17\16-----14~------------------------------
B----------------------------------------7-----7/10~-------
G------------------------------------/7-----7--------------
D----------------------------------------------------------
A----------------------------------------------------------
E----------------------------------------------------------

D----------------------------------------------------------
B------7-----------------4---------------------------------
G---------6/7\6--4~---------2/4\2---2/4\2------------------
D------------------------------------------2~--------------
A----------------------------------------------------------
E----------------------------------------------------------


D------------------------9---------------------------------
B--------------------/9------/9\7--5---/5~-----------------
G------(/5-6-7)--------------------------------------------
D----------------------------------------------------------
A----------------------------------------------------------
E----------------------------------------------------------


D----------------------------------------------------------
B---------5-----6------7~----------------------------------
G------/5---/6-----/7--------------------------------------
D----------------------------------------------------------
A----------------------------------------------------------
E----------------------------------------------------------

D-------/14~--14~---14~-----14~------14~--14~---/17--/14~--
B--------------------------------12------------------------
G----------------------------------------------------------
D----------------------------------------------------------
A----------------------------------------------------------
E----------------------------------------------------------


D-----/14~--13---/16~--------------------------------------
B-----------------------------19---------------------------
G------------------------/19-------18/19\18---16--16~------
D----------------------------------------------------------
A----------------------------------------------------------
E----------------------------------------------------------


D--------------------------------/12~--12~--12~-------12---
B----------19---------16/------------------------/12-------
G-----/19--------16----------------------------------------
D----------------------------------------------------------
A----------------------------------------------------------
E----------------------------------------------------------

D---12--------12---12------/12--12--13----14~---14~---14~--
B--------/12---------------------------------14~---14~-----
G----------------------------------------------------------
D----------------------------------------------------------
A----------------------------------------------------------
E----------------------------------------------------------

D----14~-----14~-----14~-----------/22---------------------
B--------14~-----14~-----14~-------------22\---------------
G----------------------------------------------------------
D----------------------------------------------------------
A----------------------------------------------------------
E----------------------------------------------------------


D----------------------------------------------------------
B----------17----------------------------------------------
G------17-------14~--------------12/14\12~-----------------
D----------------------------------------------------------
A----------------------------------------------------------
E----------------------------------------------------------


D----------------------------------------------------------
B------19\17--16---/19~---------My guitar doesn'T reach----
G----------------------------------------------------------
D----------------------------------------------------------
A----------------------------------------------------------
E----------------------------------------------------------


D----------------------------------------------------------
B-------19\17-16--/19~--------12\10-9--/12\10---////-------
G----------------------------------------------------------
D----------------------------------------------------------
A----------------------------------------------------------
E----------------------------------------------------------

D----------------------------------------------------------
B----------------------------------------------------------
G----------------------------------------------------------
D-------------------------2-4b--2--------------------------
A------------------2--4-------------4----------/7~---------
E------0--0---3/4-----------------------3--4---------------


D----------------------------------------------------------
B----------5------6-------7/6\7~----//////////////---------
G------/5-----/6-----/7------------------------------------
D----------------------------------------------------------
A----------------------------------------------------------
E----------------------------------------------------------








Verse 3 :



D-----------------------------------------7\\\-------------
B-----------------------------------/7---------------------
G----------------------------------------------------------
D-----------7-----8-------9--------------------------------
A-------/7-----8------9------------------------------------
E----------------------------------------------------------


D----------------------------------------------------------
B----------------------------------------------------------
G------6/7\6---4-------------------------------------------
D--------------------4/5\4----2~---------------------------
A----------------------------------------------------------
E----------------------------------------------------------


D-----------------------------------------5-----5-----5----
B-------------------------------------/5-----5-----5-------
G----------------------------------------------------------
D----------5-------6-------7-------------------------------
A-----/5-------6-------7-----------------------------------
E----------------------------------------------------------

D--------5-----5---/7\5------------------------------------
B-----5-----5-------------5\-------------------------------
G----------------------------------------------------------
D----------------------------------------------------------
A----------------------------------------------------------
E----------------------------------------------------------


D----------------------------------------------------------
B------------------------------------------7----8-----9----
G--------------------------------------/7-----8----9-------
D--------7-----8------9-------9\7~-------------------------
A----/7-----8-----9----------------------------------------
E----------------------------------------------------------


D-----------------------------------7-----8-----9----------
B------5----7/8\7----5~---------/7-----8-----9-------------
G----------------------------------------------------------
D----------------------------------------------------------
A----------------------------------------------------------
E----------------------------------------------------------

D---------/13\12-------------------------------------------
B-----9------------12/11\12~-------------------------------
G----------------------------------------------------------
D----------------------------------------------------------
A----------------------------------------------------------
E----------------------------------------------------------











Verse 4 :


D----------------------------------------------------------
B-------------------7/9------------------------------------
G--------7-----7/9-------9~--------------------------------
D----/7-----7----------------------------------------------
A----------------------------------------------------------
E----------------------------------------------------------


D----------------------------------------------------------
B-----------7----------------------------------------------
G-------/7------6/7\6---4~---------------------------------
D----------------------------------------------------------
A----------------------------------------------------------
E----------------------------------------------------------


D----------9---9---9---9---9---9---9---9---9---9---9---9---
B-------/9---9---9---9---9---9---9---9---9---9---9---9-----
G----------------------------------------------------------
D----------------------------------------------------------
A----------------------------------------------------------
E----------------------------------------------------------


D-----------12-------12-------13--------14----14----14-----
B------/12-------12------/13-------/14-----14----14--------
G----------------------------------------------------------
D----------------------------------------------------------
A----------------------------------------------------------
E----------------------------------------------------------

D---------14------14--------------/22----------------------
B-----14------14------14----------------22\----------------
G----------------------------------------------------------
D----------------------------------------------------------
A----------------------------------------------------------
E----------------------------------------------------------

D----------------------------------------------------------
B----------------------------------------------------------
G-------17---/17----14~-----------12/14\12~----------------
D----------------------------------------------------------
A----------------------------------------------------------
E----------------------------------------------------------






Ending


D-----------12---------------11--------------10------------
B------/12-------12-----/11------11-----/10------10--------
G----------------------------------------------------------
D----------------------------------------------------------
A----------------------------------------------------------
E----------------------------------------------------------

D----------------------------------------------------------
B------///////9~~~----------------\\\\\\\\\\\\\\-----------
G---------------------------------\\\\\\\\\\\\\\-----------
D---------------------------------\\\\\\\\\\\\\\-----------
A----------------------------------------------------------
E----------------------------------------------------------

That's it.