#----------------------------------PLEASE NOTE---------------------------------#
#This file is the author's own work and represents their interpretation of the #
#song. You may only use this file for private study, scholarship, or research. #
#------------------------------------------------------------------------------#
#

"Traveling Riverside Blues" (Solo)
by Led Zeppelin
off of Led Zeppelin II

as tabbed by Ryan Izzo 
(CD time in parenthesis)

Tuning  6-D 5-G 4-D 3-G 2-B 1-D

h = hammer on    p = pull off
b = bend         r = release bend
\ = slide        ~ = let ring

Solo:
D|------------------------------------------------------9--10--12------|
B|-10b11r10-8---8---10b11r10-8---8---10b11r10-8---8-10-------------8---|
G|------------9----------------9----------------9----------------------|
D|---------------------------------------------------------------------|
G|---------------------------------------------------------------------|
D|-(3:10)--------------------------------------------------------------|

D|------------------------------------------------------11-12-12b14-12-|
B|-10b11r10-8---8---10b11r10-8---8---10b11r10-8---8-10-----------------|
G|------------9----------------9----------------9----------------------|
D|---------------------------------------------------------------------|
G|---------------------------------------------------------------------|
D|-(3:14)--------------------------------------------------------------|

D|---------------------------------------------------------------------|
B|-8--10~~~~~----------------------------------------------------------|
G|---------------------------------------------------------------------|
D|---------------------------------------------------------------------|
G|---------------------------------------------------------------------|
D|-(3:20)--------------------------------------------------------------|