From wigren@skelleftea.mail.telia.com Sun May  4 11:04:18 1997




STRANGER IN A STRANGE LAND
Written by Adrian Smith.
Performed by IRON MAIDEN.
Taken from the album SOMEWHERE IN TIME.

Transcribed by Oskar "The Seventh Son" Wigren.
E-mail-me at wigren@skelleftea.mail.telia.com

Riff 1:
E---------------------------|------------------------|
B---------------------------|------------------------|
G------4--3-----2-----------|------4--3-----2--------|
D------2--2-----2-----4--5--|------2--2-----2-----5--|
A---------------------4--5--|---------------------5--|
E--0---------0-----0--------|--0---------0-----0-----|

On the fourth time of riff 1:
E------------------|
B------------------|
G------4--3--2-----|
D------2--2--2-----|
A------------------|
E--0---------------|

Riff 2:
E-----------------------|-----------------------|
B-----------------------|-----------------------|
G----------------0---0--|----------------0---0--|
D------------0-------0--|------------0-------0--|
A--0--2--3-----------2--|--0--2--3-----------2--|
E-----------------------|-----------------------|

Verse:
1.Was many years ago that ...
2.Night and day I scan ...
3.One hundred years have gone ...
E-------------------------|--------------------------|
B--------7----------------|--(7)---------------------|
G--------7----------------|--(7)---------------------|
D--------7----------------|--(7)---------------------|
A--------7----------------|--(7)---------------------|
E--0----------------------|--(0)---------------------|

I was a young man ...
My spirit ...
to find the answer ...
E-------------------------|--------------------------|
B--(7)--------------------|--(7)---------------------|
G--(7)--------------------|--(7)---------------------|
D--(7)--------------------|--(7)---------------------|
A--(7)--------------------|--(7)----------------5-7--|
E--(0)--------------------|--(0)---------------------|

But now it seems to me that ...
Until the day will dawn and ...
They found his body lying ...
E-------------------------|--------------------------|
B--------7----------------|--(7)---------------------|
G--------7----------------|--(7)---------------------|
D--------7----------------|--(7)---------------------|
A--------7----------------|--(7)---------------------|
E--0----------------------|--(0)---------------------|

sometimes things ...
hear me calling ...
preserved in time ...
E-------------------------|--------------7--5--------|
B--(7)--------------------|--(7)---------------7-----|
G--(7)--------------------|--(7)------------------7--|
D--(7)--------------------|--(7)---------------------|
A--(7)--------------------|--(7)---------------------|
E--(0)--------------------|--(0)---------------------|

Riff 3:
1.No brave new ...
2.Set me ...
3.No brave new ....
E-----------------------|-----------------------|
B-----------------------|-----------------------|
G----------------0---0--|----------------0---0--|
D------------0-------0--|------------0-------0--|
A--0--2--3-----------2--|--0--2--3-----------2--|
E-----------------------|-----------------------|

E-----------------------------|----------------------|
B-----------------------------|----------------------|
G-----------------------------|----------------------|
D-----------------------------|----------------------|
A--------5---0-2--------------|--------5---0-2-------|
E--0-3-5---------0---0-0-5-7--|--0-3-5---------0-----|

No brave new ...
Lost in this ...
Lost in this ...
E-----------------------|-----------------------|
B-----------------------|-----------------------|
G----------------0---0--|----------------0---0--|
D------------0-------0--|------------0-------0--|
A--0--2--3-----------2--|--0--2--3-----------2--|
E-----------------------|-----------------------|

Play this only on the first of riff 3:
E-----------------------------|----------------------|
B-----------------------------|----------------------|
G-----------------------------|----------------------|
D-----------------------------|----------------------|
A--------5---0-2--------------|--------5---0-2-------|
E--0-3-5---------0---0-0-5-7--|--0-3-5---------0-----|

Riff 4:
E--------------------------|--------------------------|
B--------------------------|--------------------------|
G--------------------------|--------------------------|
D--4--4--4--4--4--4--4--4--|--5--5--5--5--7--7--7--7--|
A--2--2--2--2--2--2--2--2--|--3--3--3--3--5--5--5--5--|
E--------------------------|--------------------------|

Riff 5:
      What became of the ...
E--------------------------|--------------------------|
B--------------------------|--------------------------|
G--------------------------|--------------------------|
D--2--2--2--2--4--4--4--4--|--5--5--5--5--7--7--7--7--|
A--0--0--0--0--2--2--2--2--|--3--3--3--3--5--5--5--5--|
E--------------------------|--------------------------|

      all are gone and ...
E---------------------------|----------------------------------|
B---------------------------|----------------------------------|
G---------------------------|----------------------------------|
D--9--9--9--9--12-12-12-12--|--12--12--12--12--14--14--14--14--|
A--7--7--7--7--9--9--9--9---|--10--10--10--10--12--12--12--12--|
E---------------------------|----------------------------------|

      left me here in ...
E--------------------------|----------------------------|
B--------------------------|----------------------------|
G--------------------------|----------------------------|
D--5--5--5--5--7--7--7--7--|--9--9--9--9--12-12-12--14--|
A--3--3--3--3--5--5--5--5--|--7--7--7--7--9--9--10--12--|
E--------------------------|----------------------------|

...alone
E--------------------------|--------------------------|
B--------------------------|--------------------------|
G--------------------------|--------------------------|
D--4--4--4--4--4--4--4--4--|--5--5--5--5--7--7--7--7--|
A--2--2--2--2--2--2--2--2--|--3--3--3--3--5--5--5--5--|
E--------------------------|--------------------------|

Solo-riff:
E---------------------------|--------------------------|
B---------------------------|--------------------------|
G---------------------------|--------------------------|
D--2------------------------|--(2)---------------------|
A--2------------------------|--(2)---------------------|
E--0------------------------|--(0)---------------------|

E---------------------------|--------------------------|
B---------------------------|--------------------------|
G--7------------------------|--(7)---------------------|
D--7------------------------|--(7)---------------------|
A--5------------------------|--(5)---------------------|
E---------------------------|--------------------------|

E---------------------------|--------------------------|
B---------------------------|--------------------------|
G--5------------------------|--(5)---------------------|
D--5------------------------|--(5)---------------------|
A--3------------------------|--(3)---------------------|
E---------------------------|--------------------------|

E---------------------------|--------------------------|
B---------------------------|--------------------------|
G--7------------------------|--(7)---------------------|
D--7------------------------|--(7)---------------------|
A--5------------------------|--(5)---------------------|
E---------------------------|--------------------------|

Songstructure:
Bass and drum intro
Riff 1(4 times)
Riff 2
Riff 1
Riff 2
Verse 1
Riff 3
Verse 2
Riff 3
Riff 4
Riff 1(Chorus)
Verse 3
Riff 3
Riff 4
Riff 5
Riff 1(Chorus)
Solo-riff(4 times)
Riff 5
Riff 1(Fade out)

.OSKAR WIGREN 1997-03-16